  0
SECTION
  2
HEADER
  9
$ACADVER
  1
AC1009
  9
$INSBASE
 10
0.0
 20
0.0
 30
0.0
  9
$EXTMIN
 10
-800.05492744973753
 20
-1201.987760834849
 30
-0.0015258207003583
  9
$EXTMAX
 10
1000.05493583164
 20
1471.8678425700821
 30
0.0000000349246037
  9
$LIMMIN
 10
0.0
 20
0.0
  9
$LIMMAX
 10
0.0
 20
0.0
  9
$ORTHOMODE
 70
     0
  9
$REGENMODE
 70
     1
  9
$FILLMODE
 70
     1
  9
$QTEXTMODE
 70
     0
  9
$MIRRTEXT
 70
     1
  9
$DRAGMODE
 70
     2
  9
$LTSCALE
 40
50.799999999999997
  9
$OSMODE
 70
   167
  9
$ATTMODE
 70
     1
  9
$TEXTSIZE
 40
0.0
  9
$TRACEWID
 40
1.0
  9
$TEXTSTYLE
  7
STANDARD
  9
$CLAYER
  8
DATA
  9
$CELTYPE
  6
CONTINUOUS
  9
$CECOLOR
 62
   256
  9
$DIMSCALE
 40
1.0
  9
$DIMASZ
 40
0.18
  9
$DIMEXO
 40
0.0625
  9
$DIMDLI
 40
0.38
  9
$DIMRND
 40
0.0
  9
$DIMDLE
 40
0.0
  9
$DIMEXE
 40
0.18
  9
$DIMTP
 40
0.0
  9
$DIMTM
 40
0.0
  9
$DIMTXT
 40
0.18
  9
$DIMCEN
 40
0.09
  9
$DIMTSZ
 40
0.0
  9
$DIMTOL
 70
     0
  9
$DIMLIM
 70
     0
  9
$DIMTIH
 70
     1
  9
$DIMTOH
 70
     1
  9
$DIMSE1
 70
     0
  9
$DIMSE2
 70
     0
  9
$DIMTAD
 70
     0
  9
$DIMZIN
 70
     0
  9
$DIMBLK
  1

  9
$DIMASO
 70
     1
  9
$DIMSHO
 70
     1
  9
$DIMPOST
  1

  9
$DIMAPOST
  1

  9
$DIMALT
 70
     0
  9
$DIMALTD
 70
     2
  9
$DIMALTF
 40
25.399999999999999
  9
$DIMLFAC
 40
1.0
  9
$DIMTOFL
 70
     0
  9
$DIMTVP
 40
0.0
  9
$DIMTIX
 70
     0
  9
$DIMSOXD
 70
     0
  9
$DIMSAH
 70
     0
  9
$DIMBLK1
  1

  9
$DIMBLK2
  1

  9
$DIMSTYLE
  2
STANDARD
  9
$DIMCLRD
 70
     0
  9
$DIMCLRE
 70
     0
  9
$DIMCLRT
 70
     0
  9
$DIMTFAC
 40
1.0
  9
$DIMGAP
 40
0.09
  9
$LUNITS
 70
     2
  9
$LUPREC
 70
     4
  9
$SKETCHINC
 40
0.1
  9
$FILLETRAD
 40
0.0
  9
$AUNITS
 70
     0
  9
$AUPREC
 70
     0
  9
$MENU
  1
acad
  9
$ELEVATION
 40
0.0
  9
$PELEVATION
 40
0.0
  9
$THICKNESS
 40
0.0
  9
$LIMCHECK
 70
     0
  9
$BLIPMODE
 70
     0
  9
$CHAMFERA
 40
0.0
  9
$CHAMFERB
 40
0.0
  9
$SKPOLY
 70
     0
  9
$TDCREATE
 40
2452742.9941203701
  9
$TDUPDATE
 40
2452742.9945875001
  9
$TDINDWG
 40
0.0002987269
  9
$TDUSRTIMER
 40
0.0002987269
  9
$USRTIMER
 70
     1
  9
$ANGBASE
 50
0.0
  9
$ANGDIR
 70
     0
  9
$PDMODE
 70
     1
  9
$PDSIZE
 40
-2.0
  9
$PLINEWID
 40
0.0
  9
$COORDS
 70
     0
  9
$SPLFRAME
 70
     0
  9
$SPLINETYPE
 70
     6
  9
$SPLINESEGS
 70
     8
  9
$ATTDIA
 70
     0
  9
$ATTREQ
 70
     1
  9
$HANDLING
 70
     1
  9
$HANDSEED
  5
6C8
  9
$SURFTAB1
 70
     6
  9
$SURFTAB2
 70
     6
  9
$SURFTYPE
 70
     6
  9
$SURFU
 70
     6
  9
$SURFV
 70
     6
  9
$UCSNAME
  2

  9
$UCSORG
 10
0.0
 20
0.0
 30
0.0
  9
$UCSXDIR
 10
1.0
 20
0.0
 30
0.0
  9
$UCSYDIR
 10
0.0
 20
1.0
 30
0.0
  9
$PUCSNAME
  2

  9
$PUCSORG
 10
0.0
 20
0.0
 30
0.0
  9
$PUCSXDIR
 10
1.0
 20
0.0
 30
0.0
  9
$PUCSYDIR
 10
0.0
 20
1.0
 30
0.0
  9
$USERI1
 70
     0
  9
$USERI2
 70
     0
  9
$USERI3
 70
     0
  9
$USERI4
 70
     0
  9
$USERI5
 70
     0
  9
$USERR1
 40
0.0
  9
$USERR2
 40
0.0
  9
$USERR3
 40
0.0
  9
$USERR4
 40
0.0
  9
$USERR5
 40
0.0
  9
$WORLDVIEW
 70
     1
  9
$SHADEDGE
 70
     3
  9
$SHADEDIF
 70
    70
  9
$TILEMODE
 70
     1
  9
$MAXACTVP
 70
    16
  9
$PLIMCHECK
 70
     0
  9
$PEXTMIN
 10
1.0000000000000000E+020
 20
1.0000000000000000E+020
 30
1.0000000000000000E+020
  9
$PEXTMAX
 10
-1.0000000000000000E+020
 20
-1.0000000000000000E+020
 30
-1.0000000000000000E+020
  9
$PLIMMIN
 10
0.0
 20
0.0
  9
$PLIMMAX
 10
12.0
 20
9.0
  9
$UNITMODE
 70
     0
  9
$VISRETAIN
 70
     0
  9
$PLINEGEN
 70
     1
  9
$PSLTSCALE
 70
     0
  0
ENDSEC
  0
SECTION
  2
TABLES
  0
TABLE
  2
VPORT
 70
     2
  0
VPORT
  2
*ACTIVE
 70
     0
 10
0.0
 20
0.0
 11
1.0
 21
1.0
 12
100.0000041909513
 22
134.94004086761689
 13
0.0
 23
0.0
 14
1.0
 24
1.0
 15
0.0
 25
0.0
 16
0.0
 26
0.0
 36
1.0
 17
0.0
 27
0.0
 37
0.0
 40
2702.606738925414
 41
1.7037701974865349
 42
50.0
 43
0.0
 44
0.0
 50
0.0
 51
0.0
 71
     0
 72
   100
 73
     1
 74
     1
 75
     0
 76
     0
 77
     0
 78
     0
  0
ENDTAB
  0
TABLE
  2
LTYPE
 70
    13
  0
LTYPE
  2
CONTINUOUS
 70
     0
  3
Solid line
 72
    65
 73
     0
 40
0.0
  0
LTYPE
  2
STYLE_01
 70
     0
  3

 72
    65
 73
     2
 40
0.4166412353515625
 49
0.208282470703125
 49
-0.2083587646484375
  0
LTYPE
  2
STYLE_02
 70
     0
  3

 72
    65
 73
     2
 40
0.694427490234375
 49
0.4860687255859375
 49
-0.2083587646484375
  0
LTYPE
  2
STYLE_03
 70
     0
  3

 72
    65
 73
     2
 40
1.25
 49
1.0416412353515621
 49
-0.2083587646484375
  0
LTYPE
  2
STYLE_04
 70
     0
  3

 72
    65
 73
     2
 40
1.5277099609375
 49
1.319427490234375
 49
-0.208282470703125
  0
LTYPE
  2
STYLE_05
 70
     0
  3

 72
    65
 73
     2
 40
0.208282470703125
 49
0.069427490234375
 49
-0.13885498046875
  0
LTYPE
  2
STYLE_06
 70
     0
  3

 72
    65
 73
     4
 40
1.0416412353515621
 49
0.625
 49
-0.208282470703125
 49
0.069427490234375
 49
-0.1389312744140625
  0
LTYPE
  2
STYLE_07
 70
     0
  3

 72
    65
 73
     6
 40
1.875
 49
0.625
 49
-0.208282470703125
 49
0.625
 49
-0.2083587646484375
 49
0.069427490234375
 49
-0.1389312744140625
  0
LTYPE
  2
STYLE_08
 70
     0
  3

 72
    65
 73
     6
 40
1.25
 49
0.625
 49
-0.208282470703125
 49
0.069427490234375
 49
-0.1389312744140625
 49
0.069427490234375
 49
-0.1389312744140625
  0
LTYPE
  2
STYLE_09
 70
     0
  3

 72
    65
 73
     4
 40
5.0
 49
3.75
 49
-0.2777862548828125
 49
0.694427490234375
 49
-0.2777862548828125
  0
LTYPE
  2
STYLE_10
 70
     0
  3

 72
    65
 73
     6
 40
5.9375
 49
3.75
 49
-0.2777862548828125
 49
0.694427490234375
 49
-0.2777862548828125
 49
0.625
 49
-0.3125
  0
LTYPE
  2
STYLE_11
 70
     0
  3

 72
    65
 73
     2
 40
0.2812500000000001
 49
0.1875
 49
-0.09375
  0
LTYPE
  2
STYLE_12
 70
     0
  3

 72
    65
 73
     4
 40
0.7500000000000001
 49
0.3750000000000001
 49
-0.1875
 49
0.0005
 49
-0.187
  0
ENDTAB
  0
TABLE
  2
LAYER
 70
    10
  0
LAYER
  2
0
 70
     0
 62
     7
  6
CONTINUOUS
  0
LAYER
  2
HIBINO-BASE
 70
     0
 62
     7
  6
CONTINUOUS
  0
LAYER
  2
SIDE-DOWN-18_5
 70
     0
 62
     7
  6
CONTINUOUS
  0
LAYER
  2
SIDE-UP18_5
 70
     0
 62
     7
  6
CONTINUOUS
  0
LAYER
  2
TOP22
 70
     0
 62
     7
  6
CONTINUOUS
  0
LAYER
  2
BRACKET
 70
     0
 62
     7
  6
CONTINUOUS
  0
LAYER
  2
PATTERN_FILL
 70
     0
 62
     7
  6
CONTINUOUS
  0
LAYER
  2
SPEC
 70
     0
 62
     7
  6
CONTINUOUS
  0
LAYER
  2
DIMNSIONS
 70
     0
 62
     7
  6
CONTINUOUS
  0
LAYER
  2
DATA
 70
     0
 62
     7
  6
CONTINUOUS
  0
ENDTAB
  0
TABLE
  2
STYLE
 70
     2
  0
STYLE
  2
STANDARD
 70
     0
 40
0.0
 41
1.0
 50
0.0
 71
     0
 42
0.0
  3
txt
  4
BIGFONT.SHX
  0
ENDTAB
  0
TABLE
  2
VIEW
 70
     0
  0
ENDTAB
  0
TABLE
  2
UCS
 70
     0
  0
ENDTAB
  0
TABLE
  2
APPID
 70
     1
  0
APPID
  2
ACAD
 70
     0
  0
ENDTAB
  0
TABLE
  2
DIMSTYLE
 70
     1
  0
DIMSTYLE
  2
STANDARD
 70
     0
  3

  4

  5

  6

  7

 40
1.0
 41
0.18
 42
0.0625
 43
0.38
 44
0.18
 45
0.0
 46
0.0
 47
0.0
 48
0.0
140
0.18
141
0.09
142
0.0
143
25.399999999999999
144
1.0
145
0.0
146
1.0
147
0.09
 71
     0
 72
     0
 73
     1
 74
     1
 75
     0
 76
     0
 77
     0
 78
     0
170
     0
171
     2
172
     0
173
     0
174
     0
175
     0
176
     0
177
     0
178
     0
  0
ENDTAB
  0
ENDSEC
  0
SECTION
  2
BLOCKS
  0
BLOCK
  8
0
  2
$MODEL_SPACE
 70
     0
 10
0.0
 20
0.0
 30
0.0
  3
$MODEL_SPACE
  1

  0
ENDBLK
  5
5D7
  8
0
  0
BLOCK
 67
     1
  8
0
  2
$PAPER_SPACE
 70
     0
 10
0.0
 20
0.0
 30
0.0
  3
$PAPER_SPACE
  1

  0
ENDBLK
  5
5D3
 67
     1
  8
0
  0
BLOCK
  8
PATTERN_FILL
  2
*U0
 70
     1
 10
0.0
 20
0.0
 30
0.0
  3
*U0
  1

  0
LINE
  5
36
  8
PATTERN_FILL
  6
CONTINUOUS
 62
     7
 10
330.54604578091858
 20
411.75924921651489
 30
0.0
 11
331.57300078348328
 21
412.78620421907971
 31
0.0
  0
LINE
  5
37
  8
PATTERN_FILL
  6
CONTINUOUS
 62
     7
 10
329.92942211863192
 20
409.72841199185513
 30
0.0
 11
333.6038380081431
 21
413.40282788136631
 31
0.0
  0
LINE
  5
38
  8
PATTERN_FILL
  6
CONTINUOUS
 62
     7
 10
330.34363568100503
 20
408.72841199185513
 30
0.0
 11
334.6038380081431
 21
412.98861431899309
 31
0.0
  0
LINE
  5
39
  8
PATTERN_FILL
  6
CONTINUOUS
 62
     7
 10
330.75784924337808
 20
407.72841199185518
 30
0.0
 11
335.6038380081431
 21
412.57440075662009
 31
0.0
  0
LINE
  5
3A
  8
PATTERN_FILL
  6
CONTINUOUS
 62
     7
 10
331.63200588253659
 20
407.18835506864059
 30
0.0
 11
336.14389493135758
 21
411.70024411746158
 31
0.0
  0
LINE
  5
3B
  8
PATTERN_FILL
  6
CONTINUOUS
 62
     7
 10
332.6320058825367
 20
406.77414150626748
 30
0.0
 11
336.55810849373069
 21
410.70024411746158
 31
0.0
  0
LINE
  5
3C
  8
PATTERN_FILL
  6
CONTINUOUS
 62
     7
 10
334.05521761024079
 20
406.78313967159852
 30
0.0
 11
336.54911032839959
 21
409.27703238975749
 31
0.0
  0
ENDBLK
  5
3D
  8
PATTERN_FILL
  0
BLOCK
  8
PATTERN_FILL
  2
*U1
 70
     1
 10
0.0
 20
0.0
 30
0.0
  3
*U1
  1

  0
LINE
  5
3F
  8
PATTERN_FILL
  6
CONTINUOUS
 62
     7
 10
346.99740078452089
 20
211.2400414716401
 30
0.0
 11
348.75933352835813
 21
213.0019742154773
 31
0.0
  0
LINE
  5
40
  8
PATTERN_FILL
  6
CONTINUOUS
 62
     7
 10
346.6852148707116
 20
209.51364199545779
 30
0.0
 11
350.48573300454041
 21
213.31416012928659
 31
0.0
  0
LINE
  5
41
  8
PATTERN_FILL
  6
CONTINUOUS
 62
     7
 10
347.09942843308471
 20
208.51364199545779
 30
0.0
 11
351.48573300454041
 21
212.89994656691351
 31
0.0
  0
LINE
  5
42
  8
PATTERN_FILL
  6
CONTINUOUS
 62
     7
 10
347.51390087893401
 20
207.51390087893401
 30
0.0
 11
352.48547412106421
 21
212.4854741210641
 31
0.0
  0
LINE
  5
43
  8
PATTERN_FILL
  6
CONTINUOUS
 62
     7
 10
348.51390087893412
 20
207.0996873165609
 30
0.0
 11
352.89968768343732
 21
211.4854741210641
 31
0.0
  0
LINE
  5
44
  8
PATTERN_FILL
  6
CONTINUOUS
 62
     7
 10
349.51390087893412
 20
206.6854737541878
 30
0.0
 11
353.31390124581048
 21
210.4854741210641
 31
0.0
  0
LINE
  5
45
  8
PATTERN_FILL
  6
CONTINUOUS
 62
     7
 10
351.24155035511552
 20
206.99890966799609
 30
0.0
 11
353.00046533200202
 21
208.75782464488279
 31
0.0
  0
ENDBLK
  5
46
  8
PATTERN_FILL
  0
ENDSEC
  0
SECTION
  2
ENTITIES
  0
LINE
  5
47
  8
HIBINO-BASE
  6
CONTINUOUS
 62
     7
 10
-800.0
 20
1471.786335
 30
0.0
 11
1000.0
 21
1471.786335
 31
0.0
  0
LINE
  5
48
  8
HIBINO-BASE
  6
CONTINUOUS
 62
     7
 10
1000.0
 20
-1128.213665
 30
0.0
 11
-800.0
 21
-1128.213665
 31
0.0
  0
LINE
  5
49
  8
HIBINO-BASE
  6
CONTINUOUS
 62
     7
 10
-800.0
 20
-1128.213665
 30
0.0
 11
-800.0
 21
1471.786335
 31
0.0
  0
TEXT
  5
4A
  8
HIBINO-BASE
  6
CONTINUOUS
 62
     7
 10
-728.15999999999985
 20
-1189.493504999999
 30
0.0
 40
37.425840000000001
  1
Hibino Corporation
 41
0.75
 11
-728.15999999999985
 21
-1152.0676649999989
 31
0.0
 73
     3
  0
LINE
  5
4B
  8
HIBINO-BASE
  6
CONTINUOUS
 62
     7
 10
1000.0
 20
1471.786335
 30
0.0
 11
1000.0
 21
-1128.213665
 31
0.0
  0
LINE
  5
4C
  8
HIBINO-BASE
  6
CONTINUOUS
 62
     7
 10
100.0
 20
-903.21366500000011
 30
0.0
 11
1000.0
 21
-903.21366500000011
 31
0.0
  0
LINE
  5
4D
  8
HIBINO-BASE
  6
CONTINUOUS
 62
     7
 10
100.0
 20
-1128.213665
 30
0.0
 11
100.0
 21
-903.21366500000011
 31
0.0
  0
TEXT
  5
4E
  8
HIBINO-BASE
  6
CONTINUOUS
 62
     7
 10
109.0
 20
-927.03059833333327
 30
0.0
 40
16.93333333333333
  1
NOTE
 41
0.75
 11
109.0
 21
-910.09726499999999
 31
0.0
 73
     3
  0
LINE
  5
4F
  8
HIBINO-BASE
  6
CONTINUOUS
 62
     7
 10
450.0
 20
-1128.213665
 30
0.0
 11
450.0
 21
-903.21366500000011
 31
0.0
  0
TEXT
  5
50
  8
HIBINO-BASE
  6
CONTINUOUS
 62
     7
 10
459.0
 20
-927.03059833333327
 30
0.0
 40
16.93333333333333
  1
TITLE
 41
0.75
 11
459.0
 21
-910.09726499999999
 31
0.0
 73
     3
  0
TEXT
  5
51
  8
HIBINO-BASE
  6
CONTINUOUS
 62
     7
 10
600.68389999999988
 20
-1189.493504999999
 30
0.0
 40
37.425840000000001
  1
ヒビノ株式会社
 41
0.75
 11
600.68389999999988
 21
-1152.0676649999989
 31
0.0
 73
     3
  0
LINE
  5
52
  8
HIBINO-BASE
  6
CONTINUOUS
 62
     7
 10
100.0
 20
-1028.2136649999991
 30
0.0
 11
1000.0
 21
-1028.2136649999991
 31
0.0
  0
TEXT
  5
53
  8
HIBINO-BASE
  6
CONTINUOUS
 62
     7
 10
584.0
 20
-1051.467398333333
 30
0.0
 40
16.93333333333333
  1
DRAWN
 41
0.75
 11
584.0
 21
-1034.5340650000001
 31
0.0
 73
     3
  0
TEXT
  5
54
  8
HIBINO-BASE
  6
CONTINUOUS
 62
     7
 10
334.0
 20
-1051.467398333333
 30
0.0
 40
16.93333333333333
  1
DATE
 41
0.75
 11
334.0
 21
-1034.5340650000001
 31
0.0
 73
     3
  0
TEXT
  5
55
  8
HIBINO-BASE
  6
CONTINUOUS
 62
     7
 10
111.0
 20
-1053.1382249999999
 30
0.0
 40
16.93335999999999
  1
図面サイズ
 41
0.75
 11
111.0
 21
-1036.204864999999
 31
0.0
 73
     3
  0
TEXT
  5
56
  8
HIBINO-BASE
  6
CONTINUOUS
 62
     7
 10
234.0
 20
-1051.467398333333
 30
0.0
 40
16.93333333333333
  1
SCALE
 41
0.75
 11
234.0
 21
-1034.5340650000001
 31
0.0
 73
     3
  0
TEXT
  5
57
  8
HIBINO-BASE
  6
CONTINUOUS
 62
     7
 10
459.0
 20
-1051.467398333333
 30
0.0
 40
16.93333333333333
  1
DESIGN
 41
0.75
 11
459.0
 21
-1034.5340650000001
 31
0.0
 73
     3
  0
TEXT
  5
58
  8
HIBINO-BASE
  6
CONTINUOUS
 62
     7
 10
834.0
 20
-1051.467398333333
 30
0.0
 40
16.93333333333333
  1
DRAWING NO.
 41
0.75
 11
834.0
 21
-1034.5340650000001
 31
0.0
 73
     3
  0
TEXT
  5
59
  8
HIBINO-BASE
  6
CONTINUOUS
 62
     7
 10
708.99999999999977
 20
-1051.467398333333
 30
0.0
 40
16.93333333333333
  1
CHECK
 41
0.75
 11
708.99999999999977
 21
-1034.5340650000001
 31
0.0
 73
     3
  0
LINE
  5
5A
  8
HIBINO-BASE
  6
CONTINUOUS
 62
     7
 10
243.74999999999989
 20
-1115.713665
 30
0.0
 11
281.25
 21
-1078.213665
 31
0.0
  0
TEXT
  5
5B
  8
HIBINO-BASE
  6
CONTINUOUS
 62
     7
 10
237.49999999999989
 20
-1088.0330983333331
 30
0.0
 40
16.93333333333333
  1
1
 41
0.75
 11
237.49999999999989
 21
-1071.0997649999999
 31
0.0
 73
     3
  0
LINE
  5
5C
  8
HIBINO-BASE
  6
CONTINUOUS
 62
     7
 10
225.0
 20
-1128.213665
 30
0.0
 11
225.0
 21
-1028.2136649999991
 31
0.0
  0
LINE
  5
5D
  8
HIBINO-BASE
  6
CONTINUOUS
 62
     7
 10
324.99999999999989
 20
-1128.213665
 30
0.0
 11
324.99999999999989
 21
-1028.2136649999991
 31
0.0
  0
LINE
  5
5E
  8
HIBINO-BASE
  6
CONTINUOUS
 62
     7
 10
574.99999999999989
 20
-1028.2136649999991
 30
0.0
 11
574.99999999999989
 21
-1128.213665
 31
0.0
  0
LINE
  5
5F
  8
HIBINO-BASE
  6
CONTINUOUS
 62
     7
 10
825.0
 20
-1028.2136649999991
 30
0.0
 11
825.0
 21
-1128.213665
 31
0.0
  0
LINE
  5
60
  8
HIBINO-BASE
  6
CONTINUOUS
 62
     7
 10
699.99999999999989
 20
-1128.213665
 30
0.0
 11
699.99999999999989
 21
-1028.2136649999991
 31
0.0
  0
TEXT
  5
61
  8
HIBINO-BASE
  6
CONTINUOUS
 62
     7
 10
333.5653999999999
 20
-1098.307198333333
 30
0.0
 40
16.93333333333333
  1
'99.10.
 41
0.75
 11
333.5653999999999
 21
-1081.373865
 31
0.0
 73
     3
  0
TEXT
  5
62
  8
HIBINO-BASE
  6
CONTINUOUS
 62
     7
 10
275.0
 20
-1106.7830983333331
 30
0.0
 40
16.93333333333333
  1
10
 41
0.75
 11
275.0
 21
-1089.8497649999999
 31
0.0
 73
     3
  0
TEXT
  5
63
  8
HIBINO-BASE
  6
CONTINUOUS
 62
     7
 10
590.05810011034623
 20
-1098.307198333333
 30
0.0
 40
16.93333333333333
  1
N.Sasaki
 41
0.75
 11
590.05810011034623
 21
-1081.373865
 31
0.0
 73
     3
  0
TEXT
  5
64
  8
HIBINO-BASE
  6
CONTINUOUS
 62
     7
 10
138.8333333333334
 20
-1105.913665
 30
0.0
 40
33.86666666666666
  1
A4
 41
0.75
 11
138.8333333333334
 21
-1072.046998333333
 31
0.0
 73
     3
  0
LINE
  5
65
  8
SIDE-DOWN-18_5
  6
CONTINUOUS
 62
     7
 10
-121.06405453764761
 20
-658.09748733253946
 30
0.0
 11
-112.4999999999999
 21
-683.69274834931753
 31
0.0
  0
LINE
  5
66
  8
SIDE-DOWN-18_5
  6
CONTINUOUS
 62
     7
 10
-126.6352159963797
 20
-661.81456565914596
 30
0.0
 11
-112.4999999999999
 21
-704.06027315264964
 31
0.0
  0
LINE
  5
67
  8
SIDE-DOWN-18_5
  6
CONTINUOUS
 62
     7
 10
-132.01321504280199
 20
-665.75709553177569
 30
0.0
 11
-112.4999999999999
 21
-724.07594790496671
 31
0.0
  0
TEXT
  5
68
  8
SIDE-DOWN-18_5
  6
CONTINUOUS
 62
     7
 10
-203.51562499999989
 20
-945.1416015625
 30
0.0
 40
21.484375
  1
注1
 50
90.0
 41
0.75
 11
-224.99999999999989
 21
-945.1416015625
 31
0.0
 73
     3
  0
LINE
  5
69
  8
SIDE-DOWN-18_5
  6
CONTINUOUS
 62
     7
 10
57.741458690791291
 20
-776.59218564971832
 30
0.0
 11
74.136489841156703
 21
-825.59176871251645
 31
0.0
  0
LINE
  5
6A
  8
SIDE-DOWN-18_5
  6
CONTINUOUS
 62
     7
 10
-66.183960062490655
 20
-862.5
 30
0.0
 11
-60.259226396431487
 21
-880.20716241600735
 31
0.0
  0
LINE
  5
6B
  8
SIDE-DOWN-18_5
  6
CONTINUOUS
 62
     7
 10
-55.019989160070409
 20
-883.26343841732864
 30
0.0
 11
73.301134843144723
 21
-827.4680038106975
 31
0.0
  0
LINE
  5
6C
  8
SIDE-DOWN-18_5
  6
CONTINUOUS
 62
     7
 10
-21.353047149371729
 20
-862.5
 30
0.0
 11
-19.564033166251999
 21
-867.84679918948689
 31
0.0
  0
LINE
  5
6D
  8
SIDE-DOWN-18_5
  6
CONTINUOUS
 62
     7
 10
-59.486808973689577
 20
-862.5
 30
0.0
 11
-53.591491678383939
 21
-880.11924615107762
 31
0.0
  0
LINE
  5
6E
  8
SIDE-DOWN-18_5
  6
CONTINUOUS
 62
     7
 10
-52.67193050465211
 20
-862.5
 30
0.0
 11
-46.905171319299271
 21
-879.73502646102327
 31
0.0
  0
LINE
  5
6F
  8
SIDE-DOWN-18_5
  6
CONTINUOUS
 62
     7
 10
-57.141712553407061
 20
-882.31879585487366
 30
0.0
 11
-57.446129373504739
 21
-881.40898988224126
 31
0.0
  0
ARC
  5
70
  8
SIDE-DOWN-18_5
  6
CONTINUOUS
 62
     7
 10
-55.648051586979719
 20
-881.81902388658398
 30
0.0
 40
1.5750540000001101
 50
198.4999999999894
 51
293.49999999999568
  0
ARC
  5
71
  8
SIDE-DOWN-18_5
  6
CONTINUOUS
 62
     7
 10
-58.331919592581833
 20
-879.56229458019459
 30
0.0
 40
2.0323302000001449
 50
198.49999999999719
 51
288.50000000000529
  0
LINE
  5
72
  8
SIDE-DOWN-18_5
  6
CONTINUOUS
 62
     7
 10
-57.687051756768952
 20
-881.4896013840447
 30
0.0
 11
-53.591491678384401
 21
-880.11924615107762
 31
0.0
  0
ARC
  5
73
  8
SIDE-DOWN-18_5
  6
CONTINUOUS
 62
     7
 10
72.695037885243067
 20
-826.07407179025245
 30
0.0
 40
1.51999999999998
 50
293.49993312980422
 51
18.500000000002451
  0
LINE
  5
74
  8
SIDE-DOWN-18_5
  6
CONTINUOUS
 62
     7
 10
-130.73077607476469
 20
-663.18492089211315
 30
0.0
 11
-126.6352159963802
 21
-661.81456565914596
 31
0.0
  0
LINE
  5
75
  8
SIDE-DOWN-18_5
  6
CONTINUOUS
 62
     7
 10
-130.48985369150051
 20
-663.10430939030948
 30
0.0
 11
-130.79427051159871
 21
-662.19450341767765
 31
0.0
  0
ARC
  5
76
  8
SIDE-DOWN-18_5
  6
CONTINUOUS
 62
     7
 10
-129.30060954517131
 20
-661.69473144938786
 30
0.0
 40
1.575053999999892
 50
103.5000000000054
 51
198.50000000000239
  0
ARC
  5
77
  8
SIDE-DOWN-18_5
  6
CONTINUOUS
 62
     7
 10
-130.08590823895179
 20
-665.11222769596316
 30
0.0
 40
2.0323302000000019
 50
108.5000000000054
 51
198.49999999999719
  0
LINE
  5
78
  8
SIDE-DOWN-18_5
  6
CONTINUOUS
 62
     7
 10
-129.66829501231439
 20
-660.16316922249484
 30
0.0
 11
-112.4999999999999
 21
-656.04145316949018
 31
0.0
  0
TEXT
  5
79
  8
SIDE-DOWN-18_5
  6
CONTINUOUS
 62
     7
 10
-95.141601562499915
 20
-446.484375
 30
0.0
 40
21.484375
  1
注1
 41
0.75
 11
-95.141601562499915
 21
-425.0
 31
0.0
 73
     3
  0
LINE
  5
7A
  8
SIDE-DOWN-18_5
  6
CONTINUOUS
 62
     7
 10
-132.11823843895149
 20
-645.11222769596316
 30
0.0
 11
-132.11823843895149
 21
-480.0
 31
0.0
  0
LINE
  5
7B
  8
SIDE-DOWN-18_5
  6
CONTINUOUS
 62
     7
 10
-99.999999999999915
 20
-599.29728640000019
 30
0.0
 11
-99.999999999999915
 21
-480.0
 31
0.0
  0
LINE
  5
7C
  8
SIDE-DOWN-18_5
  6
CONTINUOUS
 62
     7
 10
-99.999999999999915
 20
-500.0
 30
0.0
 11
-132.11823843895149
 21
-500.0
 31
0.0
  0
LINE
  5
7E
  8
SIDE-DOWN-18_5
  6
CONTINUOUS
 62
     7
 10
-132.11823843895149
 20
-500.0
 30
0.0
 11
-157.12446402488911
 21
-506.70039795150251
 31
0.0
  0
LINE
  5
7F
  8
SIDE-DOWN-18_5
  6
CONTINUOUS
 62
     7
 10
-132.11823843895149
 20
-500.0
 30
0.0
 11
-157.12446402488911
 21
-493.29960204849772
 31
0.0
  0
LINE
  5
7D
  8
SIDE-DOWN-18_5
  6
CONTINUOUS
 62
     7
 10
-132.11823843895149
 20
-500.0
 30
0.0
 11
-182.11823843895149
 21
-500.0
 31
0.0
  0
LINE
  5
81
  8
SIDE-DOWN-18_5
  6
CONTINUOUS
 62
     7
 10
-99.999999999999915
 20
-500.0
 30
0.0
 11
-74.993774414062401
 21
-493.29960204849772
 31
0.0
  0
LINE
  5
82
  8
SIDE-DOWN-18_5
  6
CONTINUOUS
 62
     7
 10
-99.999999999999915
 20
-500.0
 30
0.0
 11
-74.993774414062401
 21
-506.70039795150251
 31
0.0
  0
LINE
  5
80
  8
SIDE-DOWN-18_5
  6
CONTINUOUS
 62
     7
 10
-99.999999999999915
 20
-500.0
 30
0.0
 11
-39.722222222222008
 21
-500.0
 31
0.0
  0
TEXT
  5
83
  8
SIDE-DOWN-18_5
  6
CONTINUOUS
 62
     7
 10
-74.999999999999787
 20
-487.94444444444451
 30
0.0
 40
28.222222222222221
  1
32
 41
0.75
 11
-74.999999999999787
 21
-459.72222222222229
 31
0.0
 73
     3
  0
LINE
  5
84
  8
SIDE-DOWN-18_5
  6
CONTINUOUS
 62
     7
 10
-75.648051586979733
 20
-883.39407788657638
 30
0.0
 11
-169.9999999999998
 21
-883.39407788657638
 31
0.0
  0
LINE
  5
85
  8
SIDE-DOWN-18_5
  6
CONTINUOUS
 62
     7
 10
-116.1385649999996
 20
-849.99999999999272
 30
0.0
 11
-169.9999999999998
 21
-849.99999999999272
 31
0.0
  0
LINE
  5
86
  8
SIDE-DOWN-18_5
  6
CONTINUOUS
 62
     7
 10
-149.9999999999998
 20
-849.99999999999272
 30
0.0
 11
-149.9999999999998
 21
-883.39407788657638
 31
0.0
  0
LINE
  5
88
  8
SIDE-DOWN-18_5
  6
CONTINUOUS
 62
     7
 10
-149.9999999999998
 20
-883.39407788657638
 30
0.0
 11
-143.29960204849741
 21
-908.40030347251411
 31
0.0
  0
LINE
  5
89
  8
SIDE-DOWN-18_5
  6
CONTINUOUS
 62
     7
 10
-149.9999999999998
 20
-883.39407788657638
 30
0.0
 11
-156.70039795150231
 21
-908.40030347251354
 31
0.0
  0
LINE
  5
87
  8
SIDE-DOWN-18_5
  6
CONTINUOUS
 62
     7
 10
-149.9999999999998
 20
-883.39407788657638
 30
0.0
 11
-149.9999999999998
 21
-935.27777777777771
 31
0.0
  0
LINE
  5
8B
  8
SIDE-DOWN-18_5
  6
CONTINUOUS
 62
     7
 10
-149.9999999999998
 20
-849.99999999999272
 30
0.0
 11
-156.70039795150231
 21
-824.99377441405488
 31
0.0
  0
LINE
  5
8C
  8
SIDE-DOWN-18_5
  6
CONTINUOUS
 62
     7
 10
-149.9999999999998
 20
-849.99999999999272
 30
0.0
 11
-143.29960204849741
 21
-824.99377441405488
 31
0.0
  0
LINE
  5
8A
  8
SIDE-DOWN-18_5
  6
CONTINUOUS
 62
     7
 10
-149.9999999999998
 20
-849.99999999999272
 30
0.0
 11
-149.9999999999998
 21
-799.99999999999272
 31
0.0
  0
TEXT
  5
8D
  8
SIDE-DOWN-18_5
  6
CONTINUOUS
 62
     7
 10
-162.0555555555554
 20
-935.27777777777771
 30
0.0
 40
28.222222222222221
  1
33
 50
90.0
 41
0.75
 11
-190.2777777777776
 21
-935.27777777777771
 31
0.0
 73
     3
  0
LINE
  5
8E
  8
SIDE-UP18_5
  6
CONTINUOUS
 62
     7
 10
57.741458690791291
 20
-705.03070824069073
 30
0.0
 11
79.496409108821922
 21
-640.0120150611051
 31
0.0
  0
LINE
  5
8F
  8
SIDE-UP18_5
  6
CONTINUOUS
 62
     7
 10
-125.3707468008364
 20
-802.41853410744466
 30
0.0
 11
-121.27518672245181
 21
-803.7888893404122
 31
0.0
  0
ARC
  5
90
  8
SIDE-UP18_5
  6
CONTINUOUS
 62
     7
 10
-124.72587896502399
 20
-800.49122730359522
 30
0.0
 40
2.0323302000001449
 50
161.5000000000027
 51
251.50000000000679
  0
ARC
  5
91
  8
SIDE-UP18_5
  6
CONTINUOUS
 62
     7
 10
-123.94058027124289
 20
-803.90872355017029
 30
0.0
 40
1.5750540000001809
 50
161.50000000000281
 51
256.49999999999642
  0
LINE
  5
92
  8
SIDE-UP18_5
  6
CONTINUOUS
 62
     7
 10
-125.43424123767031
 20
-803.40895158188061
 30
0.0
 11
-125.12982441757261
 21
-802.49914560924822
 31
0.0
  0
LINE
  5
93
  8
SIDE-UP18_5
  6
CONTINUOUS
 62
     7
 10
-121.27518672245181
 20
-803.7888893404122
 30
0.0
 11
-112.4999999999999
 21
-777.56262073775883
 31
0.0
  0
LINE
  5
94
  8
SIDE-UP18_5
  6
CONTINUOUS
 62
     7
 10
-126.6531857688736
 20
-799.84635946778269
 30
0.0
 11
-112.4999999999999
 21
-757.54694598544222
 31
0.0
  0
LINE
  5
95
  8
SIDE-UP18_5
  6
CONTINUOUS
 62
     7
 10
-115.704024670469
 20
-807.50596589398003
 30
0.0
 11
-112.4999999999999
 21
-797.93014554109129
 31
0.0
  0
LINE
  5
96
  8
SIDE-UP18_5
  6
CONTINUOUS
 62
     7
 10
-124.3082576788477
 20
-805.44026168964251
 30
0.0
 11
-112.4999999999994
 21
-808.27518811589584
 31
0.0
  0
TEXT
  5
97
  8
SIDE-UP18_5
  6
CONTINUOUS
 62
     7
 10
-253.51562499999989
 20
-570.1416015625
 30
0.0
 40
21.484375
  1
注1
 50
90.0
 41
0.75
 11
-274.99999999999989
 21
-570.1416015625
 31
0.0
 73
     3
  0
LINE
  5
98
  8
SIDE-UP18_5
  6
CONTINUOUS
 62
     7
 10
-49.659951826604257
 20
-582.33999249480871
 30
0.0
 11
78.661057803416597
 21
-638.13578156851588
 31
0.0
  0
ARC
  5
99
  8
SIDE-UP18_5
  6
CONTINUOUS
 62
     7
 10
-52.97189031865345
 20
-586.04116041936356
 30
0.0
 40
2.0323302000000729
 50
71.500000000008797
 51
161.5000000000027
  0
LINE
  5
9A
  8
SIDE-UP18_5
  6
CONTINUOUS
 62
     7
 10
-52.327022482841031
 20
-584.11385361551345
 30
0.0
 11
-48.231462404456018
 21
-585.48420884848065
 31
0.0
  0
ARC
  5
9B
  8
SIDE-UP18_5
  6
CONTINUOUS
 62
     7
 10
-50.288022313051798
 20
-583.78443111297406
 30
0.0
 40
1.575053999999994
 50
66.499999999989058
 51
161.50000000000281
  0
LINE
  5
9C
  8
SIDE-UP18_5
  6
CONTINUOUS
 62
     7
 10
-52.086100099576811
 20
-584.19446511731689
 30
0.0
 11
-51.78168327947914
 21
-583.28465914468472
 31
0.0
  0
ARC
  5
9D
  8
SIDE-UP18_5
  6
CONTINUOUS
 62
     7
 10
78.054957152908713
 20
-639.52971198336957
 30
0.0
 40
1.5199999999997409
 50
341.50000000000023
 51
66.499915090288482
  0
LINE
  5
9E
  8
SIDE-UP18_5
  6
CONTINUOUS
 62
     7
 10
-60.531966422724409
 20
-602.23086548972105
 30
0.0
 11
-54.899197122503558
 21
-585.39629258355103
 31
0.0
  0
LINE
  5
9F
  8
SIDE-UP18_5
  6
CONTINUOUS
 62
     7
 10
-47.01993686488585
 20
-602.23086548972105
 30
0.0
 11
-41.545141452120681
 21
-585.86842676549645
 31
0.0
  0
LINE
  5
A0
  8
SIDE-UP18_5
  6
CONTINUOUS
 62
     7
 10
-53.834815333923324
 20
-602.23086548972105
 30
0.0
 11
-48.231462404456018
 21
-585.48420884848065
 31
0.0
  0
LINE
  5
A1
  8
SIDE-UP18_5
  6
CONTINUOUS
 62
     7
 10
-15.701053509605471
 20
-602.23086548972105
 30
0.0
 11
-14.20402845512889
 21
-597.7567292205581
 31
0.0
  0
LINE
  5
A2
  8
SIDE-UP18_5
  6
CONTINUOUS
 62
     7
 10
-70.288022313051798
 20
-582.20937711298166
 30
0.0
 11
-219.9999999999998
 21
-582.20937711298166
 31
0.0
  0
LINE
  5
A3
  8
SIDE-UP18_5
  6
CONTINUOUS
 62
     7
 10
-116.1385649999996
 20
-614.73051880000742
 30
0.0
 11
-219.9999999999998
 21
-614.73051880000742
 31
0.0
  0
LINE
  5
A4
  8
SIDE-UP18_5
  6
CONTINUOUS
 62
     7
 10
-199.9999999999998
 20
-614.73051880000742
 30
0.0
 11
-199.9999999999998
 21
-582.20937711298166
 31
0.0
  0
LINE
  5
A6
  8
SIDE-UP18_5
  6
CONTINUOUS
 62
     7
 10
-199.9999999999998
 20
-582.20937711298166
 30
0.0
 11
-206.70039795150231
 21
-557.20315152704404
 31
0.0
  0
LINE
  5
A7
  8
SIDE-UP18_5
  6
CONTINUOUS
 62
     7
 10
-199.9999999999998
 20
-582.20937711298166
 30
0.0
 11
-193.29960204849741
 21
-557.20315152704404
 31
0.0
  0
LINE
  5
A5
  8
SIDE-UP18_5
  6
CONTINUOUS
 62
     7
 10
-199.9999999999998
 20
-582.20937711298166
 30
0.0
 11
-199.9999999999998
 21
-479.44444444444463
 31
0.0
  0
LINE
  5
A9
  8
SIDE-UP18_5
  6
CONTINUOUS
 62
     7
 10
-199.9999999999998
 20
-614.73051880000742
 30
0.0
 11
-193.29960204849741
 21
-639.73674438594492
 31
0.0
  0
LINE
  5
AA
  8
SIDE-UP18_5
  6
CONTINUOUS
 62
     7
 10
-199.9999999999998
 20
-614.73051880000742
 30
0.0
 11
-206.70039795150231
 21
-639.73674438594492
 31
0.0
  0
LINE
  5
A8
  8
SIDE-UP18_5
  6
CONTINUOUS
 62
     7
 10
-199.9999999999998
 20
-614.73051880000742
 30
0.0
 11
-199.9999999999998
 21
-664.73051880000742
 31
0.0
  0
TEXT
  5
AB
  8
SIDE-UP18_5
  6
CONTINUOUS
 62
     7
 10
-212.0555555555554
 20
-550.0
 30
0.0
 40
28.222222222222221
  1
32.5
 50
90.0
 41
0.75
 11
-240.2777777777776
 21
-550.0
 31
0.0
 73
     3
  0
LINE
  5
AC
  8
TOP22
  6
CONTINUOUS
 62
     7
 10
-511.16281864335667
 20
-245.88473508085559
 30
0.0
 11
-439.82032403657462
 21
-318.9921055228744
 31
0.0
  0
TEXT
  5
AD
  8
TOP22
  6
CONTINUOUS
 62
     7
 10
-403.51562499999989
 20
-472.50271267361109
 30
0.0
 40
21.484375
  1
注1
 50
90.0
 41
0.75
 11
-424.99999999999989
 21
-472.50271267361109
 31
0.0
 73
     3
  0
LINE
  5
AE
  8
TOP22
  6
CONTINUOUS
 62
     7
 10
-591.1795675603538
 20
-418.02879472529543
 30
0.0
 11
-592.33918596044646
 21
-415.15863846824641
 31
0.0
  0
ARC
  5
AF
  8
TOP22
  6
CONTINUOUS
 62
     7
 10
-693.20762786580372
 20
60.677178367068862
 30
0.0
 40
489.45799999999991
 50
282.0315983943446
 51
286.50564577532862
  0
ARC
  5
B0
  8
TOP22
  6
CONTINUOUS
 62
     7
 10
-694.06412126346447
 20
62.797073915656767
 30
0.0
 40
489.45800000000003
 50
282.53640516317319
 51
285.6084592995195
  0
ARC
  5
B1
  8
TOP22
  6
CONTINUOUS
 62
     7
 10
-590.53566600926911
 20
-402.78943009480111
 30
0.0
 40
12.499999999999799
 50
207.7577667785155
 51
282.53640516317432
  0
ARC
  5
B2
  8
TOP22
  6
CONTINUOUS
 62
     7
 10
-520.10897781465428
 20
-254.61492614874339
 30
0.0
 40
12.499999999999879
 50
44.300000000000168
 51
112.0000000000002
  0
LINE
  5
B3
  8
TOP22
  6
CONTINUOUS
 62
     7
 10
-538.45963278566433
 20
-248.54738773481409
 30
0.0
 11
-524.79156023235328
 21
-243.0251279666588
 31
0.0
  0
ARC
  5
B4
  8
TOP22
  6
CONTINUOUS
 62
     7
 10
-445.11269741178012
 20
-344.03473694261322
 30
0.0
 40
12.49999999999986
 50
301.46359483682568
 51
17.299999999999891
  0
ARC
  5
B5
  8
TOP22
  6
CONTINUOUS
 62
     7
 10
-694.06412126346447
 20
62.797073915657002
 30
0.0
 40
489.45799999999991
 50
299.91016973591252
 51
301.46359483682681
  0
ARC
  5
B6
  8
TOP22
  6
CONTINUOUS
 62
     7
 10
-693.20762786580372
 20
60.677178367068862
 30
0.0
 40
489.4579999999998
 50
299.79457008613622
 51
301.9684016056554
  0
LINE
  5
B7
  8
TOP22
  6
CONTINUOUS
 62
     7
 10
-434.06336119753593
 20
-354.54972685098841
 30
0.0
 11
-435.24420719959971
 21
-351.62703043537073
 31
0.0
  0
LINE
  5
B8
  8
TOP22
  6
CONTINUOUS
 62
     7
 10
-433.17818741799562
 20
-340.31755101664089
 30
0.0
 11
-439.82032403657462
 21
-318.9921055228744
 31
0.0
  0
TEXT
  5
B9
  8
TOP22
  6
CONTINUOUS
 62
     7
 10
-395.14160156249989
 20
-248.84548611111109
 30
0.0
 40
21.484375
  1
注1
 41
0.75
 11
-395.14160156249989
 21
-227.36111111111109
 31
0.0
 73
     3
  0
LINE
  5
BA
  8
TOP22
  6
CONTINUOUS
 62
     7
 10
-571.17956756035369
 20
-418.02879472529543
 30
0.0
 11
-329.99999999999977
 21
-418.02879472529543
 31
0.0
  0
LINE
  5
BB
  8
TOP22
  6
CONTINUOUS
 62
     7
 10
-537.29000000000042
 20
-402.36111111111109
 30
0.0
 11
-329.99999999999977
 21
-402.36111111111109
 31
0.0
  0
LINE
  5
BC
  8
TOP22
  6
CONTINUOUS
 62
     7
 10
-349.99999999999977
 20
-402.36111111111109
 30
0.0
 11
-349.99999999999977
 21
-418.02879472529543
 31
0.0
  0
LINE
  5
BE
  8
TOP22
  6
CONTINUOUS
 62
     7
 10
-349.99999999999977
 20
-418.02879472529543
 30
0.0
 11
-343.29960204849738
 21
-443.03502031123293
 31
0.0
  0
LINE
  5
BF
  8
TOP22
  6
CONTINUOUS
 62
     7
 10
-349.99999999999977
 20
-418.02879472529543
 30
0.0
 11
-356.70039795150228
 21
-443.03502031123293
 31
0.0
  0
LINE
  5
BD
  8
TOP22
  6
CONTINUOUS
 62
     7
 10
-349.99999999999977
 20
-418.02879472529543
 30
0.0
 11
-349.99999999999977
 21
-462.6388888888888
 31
0.0
  0
LINE
  5
C1
  8
TOP22
  6
CONTINUOUS
 62
     7
 10
-349.99999999999977
 20
-402.36111111111109
 30
0.0
 11
-356.70039795150228
 21
-377.35488552517359
 31
0.0
  0
LINE
  5
C2
  8
TOP22
  6
CONTINUOUS
 62
     7
 10
-349.99999999999977
 20
-402.36111111111109
 30
0.0
 11
-343.29960204849738
 21
-377.35488552517359
 31
0.0
  0
LINE
  5
C0
  8
TOP22
  6
CONTINUOUS
 62
     7
 10
-349.99999999999977
 20
-402.36111111111109
 30
0.0
 11
-349.99999999999977
 21
-352.36111111111097
 31
0.0
  0
TEXT
  5
C3
  8
TOP22
  6
CONTINUOUS
 62
     7
 10
-362.05555555555537
 20
-462.6388888888888
 30
0.0
 40
28.222222222222221
  1
16
 50
90.0
 41
0.75
 11
-390.27777777777771
 21
-462.6388888888888
 31
0.0
 73
     3
  0
LINE
  5
C4
  8
TOP22
  6
CONTINUOUS
 62
     7
 10
-432.61269741178148
 20
-324.03473694261322
 30
0.0
 11
-432.61269741178148
 21
-282.36111111111109
 31
0.0
  0
LINE
  5
C5
  8
TOP22
  6
CONTINUOUS
 62
     7
 10
-464.57999999999993
 20
-339.84689591111072
 30
0.0
 11
-464.57999999999993
 21
-282.36111111111109
 31
0.0
  0
LINE
  5
C6
  8
TOP22
  6
CONTINUOUS
 62
     7
 10
-464.57999999999993
 20
-302.36111111111097
 30
0.0
 11
-432.61269741178148
 21
-302.36111111111097
 31
0.0
  0
LINE
  5
C8
  8
TOP22
  6
CONTINUOUS
 62
     7
 10
-432.61269741178148
 20
-302.36111111111097
 30
0.0
 11
-407.60647182584393
 21
-295.66071315960858
 31
0.0
  0
LINE
  5
C9
  8
TOP22
  6
CONTINUOUS
 62
     7
 10
-432.61269741178148
 20
-302.36111111111097
 30
0.0
 11
-407.60647182584393
 21
-309.06150906261348
 31
0.0
  0
LINE
  5
C7
  8
TOP22
  6
CONTINUOUS
 62
     7
 10
-432.61269741178148
 20
-302.36111111111097
 30
0.0
 11
-347.08333333333309
 21
-302.36111111111097
 31
0.0
  0
LINE
  5
CB
  8
TOP22
  6
CONTINUOUS
 62
     7
 10
-464.57999999999993
 20
-302.36111111111097
 30
0.0
 11
-489.58622558593743
 21
-309.06150906261348
 31
0.0
  0
LINE
  5
CC
  8
TOP22
  6
CONTINUOUS
 62
     7
 10
-464.57999999999993
 20
-302.36111111111097
 30
0.0
 11
-489.58622558593743
 21
-295.66071315960858
 31
0.0
  0
LINE
  5
CA
  8
TOP22
  6
CONTINUOUS
 62
     7
 10
-464.57999999999993
 20
-302.36111111111097
 30
0.0
 11
-514.57999999999993
 21
-302.36111111111097
 31
0.0
  0
TEXT
  5
CD
  8
TOP22
  6
CONTINUOUS
 62
     7
 10
-382.36111111111092
 20
-290.30555555555549
 30
0.0
 40
28.222222222222221
  1
32
 41
0.75
 11
-382.36111111111092
 21
-262.0833333333332
 31
0.0
 73
     3
  0
CIRCLE
  5
CE
  8
BRACKET
  6
CONTINUOUS
 62
     7
 10
-557.29000000000042
 20
-275.73075551111077
 30
0.0
 40
17.25
  0
LINE
  5
CF
  8
BRACKET
  6
CONTINUOUS
 62
     7
 10
-562.78999999999951
 20
-259.38106132436849
 30
0.0
 11
-562.78999999999951
 21
-224.5807555111104
 31
0.0
  0
LINE
  5
D0
  8
BRACKET
  6
CONTINUOUS
 62
     7
 10
-551.78999999999996
 20
-259.38106132436849
 30
0.0
 11
-551.78999999999996
 21
-224.5807555111104
 31
0.0
  0
LINE
  5
D1
  8
BRACKET
  6
CONTINUOUS
 62
     7
 10
-592.28999999999985
 20
-197.5807555111106
 30
0.0
 11
-522.28999999999996
 21
-197.5807555111106
 31
0.0
  0
ARC
  5
D2
  8
BRACKET
  6
CONTINUOUS
 62
     7
 10
-557.29000000000042
 20
-134.83075551110969
 30
0.0
 40
76.250000000000668
 50
245.50762136313261
 51
294.49237863686761
  0
LINE
  5
D3
  8
BRACKET
  6
CONTINUOUS
 62
     7
 10
-566.7900000000003
 20
-215.5807555111106
 30
0.0
 11
-566.7900000000003
 21
-213.0807555111106
 31
0.0
  0
LINE
  5
D4
  8
BRACKET
  6
CONTINUOUS
 62
     7
 10
-547.78999999999985
 20
-215.5807555111106
 30
0.0
 11
-547.78999999999985
 21
-213.0807555111106
 31
0.0
  0
LINE
  5
D5
  8
BRACKET
  6
CONTINUOUS
 62
     7
 10
-567.04000000000042
 20
-224.5807555111104
 30
0.0
 11
-547.54000000000042
 21
-224.5807555111104
 31
0.0
  0
LINE
  5
D6
  8
BRACKET
  6
CONTINUOUS
 62
     7
 10
-567.04000000000042
 20
-215.5807555111106
 30
0.0
 11
-547.54000000000042
 21
-215.5807555111106
 31
0.0
  0
LINE
  5
D7
  8
BRACKET
  6
CONTINUOUS
 62
     7
 10
-567.04000000000042
 20
-224.5807555111104
 30
0.0
 11
-567.04000000000042
 21
-215.5807555111106
 31
0.0
  0
LINE
  5
D8
  8
BRACKET
  6
CONTINUOUS
 62
     7
 10
-562.16499999999985
 20
-224.5807555111104
 30
0.0
 11
-562.16499999999985
 21
-215.5807555111106
 31
0.0
  0
LINE
  5
D9
  8
BRACKET
  6
CONTINUOUS
 62
     7
 10
-552.41499999999985
 20
-224.5807555111104
 30
0.0
 11
-552.41499999999985
 21
-215.5807555111106
 31
0.0
  0
LINE
  5
DA
  8
BRACKET
  6
CONTINUOUS
 62
     7
 10
-547.54000000000042
 20
-224.58075551111079
 30
0.0
 11
-547.54000000000042
 21
-215.5807555111106
 31
0.0
  0
LINE
  5
DB
  8
BRACKET
  6
CONTINUOUS
 62
     7
 10
-566.0399999999994
 20
-203.58075551111071
 30
0.0
 11
-548.53999999999985
 21
-203.58075551111071
 31
0.0
  0
LINE
  5
DC
  8
BRACKET
  6
CONTINUOUS
 62
     7
 10
-567.79000000000042
 20
-213.0807555111106
 30
0.0
 11
-546.79000000000042
 21
-213.0807555111106
 31
0.0
  0
LINE
  5
DD
  8
BRACKET
  6
CONTINUOUS
 62
     7
 10
-567.79000000000042
 20
-210.3543445412937
 30
0.0
 11
-567.79000000000042
 21
-213.0807555111106
 31
0.0
  0
LINE
  5
DE
  8
BRACKET
  6
CONTINUOUS
 62
     7
 10
-566.0399999999994
 20
-210.57704254882589
 30
0.0
 11
-566.0399999999994
 21
-203.58075551111071
 31
0.0
  0
ARC
  5
DF
  8
BRACKET
  6
CONTINUOUS
 62
     7
 10
-586.82826909813673
 20
-199.66942575261081
 30
0.0
 40
5.0000000000001181
 50
190.30484646876641
 51
245.50762136313531
  0
LINE
  5
E0
  8
BRACKET
  6
CONTINUOUS
 62
     7
 10
-592.28999999999985
 20
-197.5807555111106
 30
0.0
 11
-591.74761864863603
 21
-200.5638529436109
 31
0.0
  0
LINE
  5
E1
  8
BRACKET
  6
CONTINUOUS
 62
     7
 10
-546.79000000000042
 20
-213.0807555111106
 30
0.0
 11
-546.79000000000042
 21
-210.3543445412937
 31
0.0
  0
LINE
  5
E2
  8
BRACKET
  6
CONTINUOUS
 62
     7
 10
-548.53999999999985
 20
-210.57704254882589
 30
0.0
 11
-548.53999999999985
 21
-203.58075551111071
 31
0.0
  0
ARC
  5
E3
  8
BRACKET
  6
CONTINUOUS
 62
     7
 10
-527.75173090186343
 20
-199.6694257526114
 30
0.0
 40
5.0000000000000941
 50
294.4923786368692
 51
349.69515353123347
  0
LINE
  5
E4
  8
BRACKET
  6
CONTINUOUS
 62
     7
 10
-522.83238135136389
 20
-200.56385294361161
 30
0.0
 11
-522.28999999999996
 21
-197.5807555111106
 31
0.0
  0
LINE
  5
E5
  8
BRACKET
  6
CONTINUOUS
 62
     7
 10
-149.9999999999998
 20
-740.81144694520435
 30
0.0
 11
104.78035559999989
 21
-740.81144694520435
 31
0.0
  0
LINE
  5
E6
  8
BRACKET
  6
CONTINUOUS
 62
     7
 10
-140.87238884296249
 20
-796.85708123957181
 30
0.0
 11
26.630355599999898
 21
-740.81144694520435
 31
0.0
  0
LINE
  5
E7
  8
BRACKET
  6
CONTINUOUS
 62
     7
 10
-140.87238884296249
 20
-684.76581265083723
 30
0.0
 11
26.630355599999898
 21
-740.81144694520435
 31
0.0
  0
LINE
  5
E8
  8
BRACKET
  6
CONTINUOUS
 62
     7
 10
-557.29000000000042
 20
-177.3611111111108
 30
0.0
 11
-557.29000000000042
 21
-427.36111111111092
 31
0.0
  0
LINE
  5
E9
  8
BRACKET
  6
CONTINUOUS
 62
     7
 10
-557.28999999999985
 20
-275.73075551111032
 30
0.0
 11
-500.48826903024059
 21
-416.31997308565161
 31
0.0
  0
LINE
  5
EA
  8
BRACKET
  6
CONTINUOUS
 62
     7
 10
-614.09173096975906
 20
-416.31997308565161
 30
0.0
 11
-557.29000000000042
 21
-275.73075551111077
 31
0.0
  0
LINE
  5
EB
  8
BRACKET
  6
CONTINUOUS
 62
     7
 10
77.780355599999979
 20
-740.81144694520435
 30
0.0
 11
86.780355599999965
 21
-740.81144694520435
 31
0.0
  0
LINE
  5
EC
  8
BRACKET
  6
CONTINUOUS
 62
     7
 10
77.780355599999979
 20
-732.36769925830606
 30
0.0
 11
86.780355599999965
 21
-732.36769925830606
 31
0.0
  0
LINE
  5
ED
  8
BRACKET
  6
CONTINUOUS
 62
     7
 10
77.780355599999979
 20
-749.25519463210219
 30
0.0
 11
86.780355599999965
 21
-749.25519463210219
 31
0.0
  0
ARC
  5
EE
  8
BRACKET
  6
CONTINUOUS
 62
     7
 10
26.630355599999898
 20
-740.81144694520435
 30
0.0
 40
17.250000000000071
 50
18.59282254942736
 51
341.40717745057327
  0
LINE
  5
EF
  8
BRACKET
  6
CONTINUOUS
 62
     7
 10
77.780355599999979
 20
-732.36769925830606
 30
0.0
 11
77.780355599999979
 21
-749.25519463210219
 31
0.0
  0
LINE
  5
F0
  8
BRACKET
  6
CONTINUOUS
 62
     7
 10
42.980049786742363
 20
-735.31144694520435
 30
0.0
 11
42.980049786742363
 21
-746.31144694520435
 31
0.0
  0
LINE
  5
F1
  8
BRACKET
  6
CONTINUOUS
 62
     7
 10
42.980049786742363
 20
-746.31144694520435
 30
0.0
 11
77.780355599999979
 21
-746.31144694520435
 31
0.0
  0
LINE
  5
F2
  8
BRACKET
  6
CONTINUOUS
 62
     7
 10
42.980049786742363
 20
-735.31144694520435
 30
0.0
 11
77.780355599999979
 21
-735.31144694520435
 31
0.0
  0
LINE
  5
F3
  8
BRACKET
  6
CONTINUOUS
 62
     7
 10
91.280355599999979
 20
-695.81144694520435
 30
0.0
 11
104.78035559999989
 21
-695.81144694520435
 31
0.0
  0
LINE
  5
F4
  8
BRACKET
  6
CONTINUOUS
 62
     7
 10
91.280355599999979
 20
-751.31144694520412
 30
0.0
 11
91.280355599999979
 21
-785.81144694520435
 31
0.0
  0
LINE
  5
F5
  8
BRACKET
  6
CONTINUOUS
 62
     7
 10
91.280355599999979
 20
-785.81144694520435
 30
0.0
 11
104.78035559999989
 21
-785.81144694520435
 31
0.0
  0
LINE
  5
F6
  8
BRACKET
  6
CONTINUOUS
 62
     7
 10
91.413229892828525
 20
-731.81144694520435
 30
0.0
 11
99.280355600000433
 21
-731.81144694520435
 31
0.0
  0
LINE
  5
F7
  8
BRACKET
  6
CONTINUOUS
 62
     7
 10
91.413229892828525
 20
-749.81144694520435
 30
0.0
 11
99.280355600000433
 21
-749.81144694520435
 31
0.0
  0
LINE
  5
F8
  8
BRACKET
  6
CONTINUOUS
 62
     7
 10
91.280355599999979
 20
-730.31144694520412
 30
0.0
 11
89.280355599999965
 21
-730.31144694520412
 31
0.0
  0
LINE
  5
F9
  8
BRACKET
  6
CONTINUOUS
 62
     7
 10
89.280355600000448
 20
-751.31144694520412
 30
0.0
 11
91.280355599999979
 21
-751.31144694520412
 31
0.0
  0
LINE
  5
FA
  8
BRACKET
  6
CONTINUOUS
 62
     7
 10
89.280355599999965
 20
-730.31144694520447
 30
0.0
 11
89.280355599999965
 21
-751.31144694520412
 31
0.0
  0
ARC
  5
FB
  8
BRACKET
  6
CONTINUOUS
 62
     7
 10
-18.71964440002138
 20
-740.81144694520492
 30
0.0
 40
110.5000000000216
 50
354.5473780121888
 51
5.4526219878118241
  0
LINE
  5
FC
  8
BRACKET
  6
CONTINUOUS
 62
     7
 10
104.78035559999989
 20
-785.81144694520435
 30
0.0
 11
104.78035559999989
 21
-695.81144694520435
 31
0.0
  0
LINE
  5
FD
  8
BRACKET
  6
CONTINUOUS
 62
     7
 10
99.280355599999993
 20
-695.81144694520435
 30
0.0
 11
99.280355599999993
 21
-785.81144694520435
 31
0.0
  0
LINE
  5
FE
  8
BRACKET
  6
CONTINUOUS
 62
     7
 10
91.280355599999979
 20
-695.81144694520435
 30
0.0
 11
91.280355599999979
 21
-730.31144694520412
 31
0.0
  0
LINE
  5
FF
  8
BRACKET
  6
CONTINUOUS
 62
     7
 10
86.780355599999965
 20
-731.31144694520435
 30
0.0
 11
86.780355599999965
 21
-750.31144694520412
 31
0.0
  0
LINE
  5
100
  8
BRACKET
  6
CONTINUOUS
 62
     7
 10
86.780355599999965
 20
-731.31144694520435
 30
0.0
 11
89.280355599999965
 21
-731.31144694520435
 31
0.0
  0
LINE
  5
101
  8
BRACKET
  6
CONTINUOUS
 62
     7
 10
86.780355599999965
 20
-745.81144694520435
 30
0.0
 11
89.280355599999965
 21
-745.81144694520435
 31
0.0
  0
LINE
  5
102
  8
BRACKET
  6
CONTINUOUS
 62
     7
 10
86.780355599999965
 20
-750.31144694520412
 30
0.0
 11
89.280355600000448
 21
-750.31144694520412
 31
0.0
  0
INSERT
  5
103
  8
PATTERN_FILL
  6
CONTINUOUS
 62
     7
  2
*U0
 10
100.0
 20
140.0
 30
0.0
  0
INSERT
  5
104
  8
PATTERN_FILL
  6
CONTINUOUS
 62
     7
  2
*U1
 10
100.0
 20
140.0
 30
0.0
  0
TEXT
  5
105
  8
SPEC
  6
CONTINUOUS
 62
     7
 10
-712.49999999999989
 20
1387.6240349999989
 30
0.0
 40
25.399999999999999
  1
仕様
 41
0.75
 11
-712.49999999999989
 21
1413.0240349999999
 31
0.0
 73
     3
  0
LINE
  5
106
  8
SPEC
  6
CONTINUOUS
 62
     7
 10
-725.0
 20
1371.7863349999991
 30
0.0
 11
750.0
 21
1371.7863349999991
 31
0.0
  0
LINE
  5
107
  8
SPEC
  6
CONTINUOUS
 62
     7
 10
-725.0
 20
1334.2863349999991
 30
0.0
 11
750.0
 21
1334.2863349999991
 31
0.0
  0
LINE
  5
108
  8
SPEC
  6
CONTINUOUS
 62
     7
 10
-725.0
 20
1259.2863349999991
 30
0.0
 11
750.0
 21
1259.2863349999991
 31
0.0
  0
LINE
  5
109
  8
SPEC
  6
CONTINUOUS
 62
     7
 10
-725.0
 20
1296.7863349999991
 30
0.0
 11
750.0
 21
1296.7863349999991
 31
0.0
  0
LINE
  5
10A
  8
SPEC
  6
CONTINUOUS
 62
     7
 10
-725.0
 20
1034.2863349999991
 30
0.0
 11
750.0
 21
1034.2863349999991
 31
0.0
  0
LINE
  5
10B
  8
SPEC
  6
CONTINUOUS
 62
     7
 10
-725.0
 20
996.78633499999955
 30
0.0
 11
750.0
 21
996.78633499999955
 31
0.0
  0
LINE
  5
10C
  8
SPEC
  6
CONTINUOUS
 62
     7
 10
-725.0
 20
921.78633499999955
 30
0.0
 11
750.0
 21
921.78633499999955
 31
0.0
  0
LINE
  5
10D
  8
SPEC
  6
CONTINUOUS
 62
     7
 10
-725.0
 20
846.78633500000001
 30
0.0
 11
750.0
 21
846.78633500000001
 31
0.0
  0
LINE
  5
10E
  8
SPEC
  6
CONTINUOUS
 62
     7
 10
-725.0
 20
734.28633500000001
 30
0.0
 11
750.0
 21
734.28633500000001
 31
0.0
  0
LINE
  5
10F
  8
SPEC
  6
CONTINUOUS
 62
     7
 10
-725.0
 20
771.78633500000001
 30
0.0
 11
750.0
 21
771.78633500000001
 31
0.0
  0
LINE
  5
110
  8
SPEC
  6
CONTINUOUS
 62
     7
 10
-725.0
 20
809.28633500000001
 30
0.0
 11
750.0
 21
809.28633500000001
 31
0.0
  0
LINE
  5
111
  8
SPEC
  6
CONTINUOUS
 62
     7
 10
-725.0
 20
1371.7863349999991
 30
0.0
 11
-725.0
 21
659.28633500000001
 31
0.0
  0
LINE
  5
112
  8
SPEC
  6
CONTINUOUS
 62
     7
 10
-399.99999999999989
 20
1371.7863349999991
 30
0.0
 11
-399.99999999999989
 21
659.28633499999978
 31
0.0
  0
LINE
  5
113
  8
SPEC
  6
CONTINUOUS
 62
     7
 10
750.0
 20
1371.7863349999991
 30
0.0
 11
750.0
 21
659.28633500000001
 31
0.0
  0
LINE
  5
114
  8
SPEC
  6
CONTINUOUS
 62
     7
 10
-725.0
 20
1221.786335
 30
0.0
 11
750.0
 21
1221.786335
 31
0.0
  0
LINE
  5
115
  8
SPEC
  6
CONTINUOUS
 62
     7
 10
-725.0
 20
1146.7863349999991
 30
0.0
 11
750.0
 21
1146.7863349999991
 31
0.0
  0
LINE
  5
116
  8
SPEC
  6
CONTINUOUS
 62
     7
 10
-725.0
 20
1184.2863349999991
 30
0.0
 11
750.0
 21
1184.2863349999991
 31
0.0
  0
LINE
  5
117
  8
SPEC
  6
CONTINUOUS
 62
     7
 10
-725.0
 20
1109.2863349999991
 30
0.0
 11
750.0
 21
1109.2863349999991
 31
0.0
  0
LINE
  5
118
  8
SPEC
  6
CONTINUOUS
 62
     7
 10
-725.0
 20
1071.7863349999991
 30
0.0
 11
750.0
 21
1071.7863349999991
 31
0.0
  0
LINE
  5
119
  8
SPEC
  6
CONTINUOUS
 62
     7
 10
-725.0
 20
884.28633499999955
 30
0.0
 11
750.0
 21
884.28633499999955
 31
0.0
  0
TEXT
  5
11A
  8
SPEC
  6
CONTINUOUS
 62
     7
 10
-390.99999999999989
 20
1343.647223888888
 30
0.0
 40
19.75555555555556
  1
2Wayスピーカ (Compact Indoor/Outdoor Background/Foreground Speaker)
 41
0.75
 11
-390.99999999999989
 21
1363.402779444443
 31
0.0
 73
     3
  0
TEXT
  5
11B
  8
SPEC
  6
CONTINUOUS
 62
     7
 10
-715.99999999999989
 20
781.14722388888845
 30
0.0
 40
19.75555555555556
  1
可変振り角度（スピーカ）
 41
0.75
 11
-715.99999999999989
 21
800.90277944444415
 31
0.0
 73
     3
  0
TEXT
  5
11C
  8
SPEC
  6
CONTINUOUS
 62
     7
 10
-715.99999999999989
 20
856.14722388888845
 30
0.0
 40
19.75555555555556
  1
メンテナンス
 41
0.75
 11
-715.99999999999989
 21
875.90277944444415
 31
0.0
 73
     3
  0
TEXT
  5
11D
  8
SPEC
  6
CONTINUOUS
 62
     7
 10
-715.99999999999989
 20
668.64722388888845
 30
0.0
 40
19.75555555555556
  1
付属品
 41
0.75
 11
-715.99999999999989
 21
688.40277944444415
 31
0.0
 73
     3
  0
TEXT
  5
11E
  8
SPEC
  6
CONTINUOUS
 62
     7
 10
-715.99999999999989
 20
706.14722388888845
 30
0.0
 40
19.75555555555556
  1
重量
 41
0.75
 11
-715.99999999999989
 21
725.90277944444415
 31
0.0
 73
     3
  0
TEXT
  5
11F
  8
SPEC
  6
CONTINUOUS
 62
     7
 10
-715.99999999999989
 20
743.64722388888845
 30
0.0
 40
19.75555555555556
  1
寸法
 41
0.75
 11
-715.99999999999989
 21
763.40277944444415
 31
0.0
 73
     3
  0
TEXT
  5
120
  8
SPEC
  6
CONTINUOUS
 62
     7
 10
-715.99999999999989
 20
818.64722388888845
 30
0.0
 40
19.75555555555556
  1
コネクター
 41
0.75
 11
-715.99999999999989
 21
838.40277944444415
 31
0.0
 73
     3
  0
TEXT
  5
121
  8
SPEC
  6
CONTINUOUS
 62
     7
 10
-715.99999999999989
 20
893.64722388888833
 30
0.0
 40
19.75555555555556
  1
極性
 41
0.75
 11
-715.99999999999989
 21
913.40277944444381
 31
0.0
 73
     3
  0
TEXT
  5
122
  8
SPEC
  6
CONTINUOUS
 62
     7
 10
-715.99999999999989
 20
968.64722388888833
 30
0.0
 40
19.75555555555556
  1
外装色
 41
0.75
 11
-715.99999999999989
 21
988.40277944444381
 31
0.0
 73
     3
  0
TEXT
  5
123
  8
SPEC
  6
CONTINUOUS
 62
     7
 10
-715.99999999999989
 20
1006.147223888888
 30
0.0
 40
19.75555555555556
  1
耐候性規格
 41
0.75
 11
-715.99999999999989
 21
1025.902779444443
 31
0.0
 73
     3
  0
TEXT
  5
124
  8
SPEC
  6
CONTINUOUS
 62
     7
 10
-715.99999999999989
 20
1043.647223888888
 30
0.0
 40
19.75555555555556
  1
クロスオーバー
 41
0.75
 11
-715.99999999999989
 21
1063.402779444443
 31
0.0
 73
     3
  0
TEXT
  5
125
  8
SPEC
  6
CONTINUOUS
 62
     7
 10
-715.99999999999989
 20
1081.147223888888
 30
0.0
 40
19.75555555555556
  1
許容入力
 41
0.75
 11
-715.99999999999989
 21
1100.902779444443
 31
0.0
 73
     3
  0
TEXT
  5
126
  8
SPEC
  6
CONTINUOUS
 62
     7
 10
-715.99999999999989
 20
1118.647223888888
 30
0.0
 40
19.75555555555556
  1
公称インピーダンス
 41
0.75
 11
-715.99999999999989
 21
1138.4027794444439
 31
0.0
 73
     3
  0
TEXT
  5
127
  8
SPEC
  6
CONTINUOUS
 62
     7
 10
-715.99999999999989
 20
1156.147223888888
 30
0.0
 40
19.75555555555556
  1
音圧レベル (1W/1m)
 41
0.75
 11
-715.99999999999989
 21
1175.902779444443
 31
0.0
 73
     3
  0
TEXT
  5
128
  8
SPEC
  6
CONTINUOUS
 62
     7
 10
-715.99999999999989
 20
1193.647223888888
 30
0.0
 40
19.75555555555556
  1
高域ユニット
 41
0.75
 11
-715.99999999999989
 21
1213.402779444443
 31
0.0
 73
     3
  0
TEXT
  5
129
  8
SPEC
  6
CONTINUOUS
 62
     7
 10
-715.99999999999989
 20
1231.147223888888
 30
0.0
 40
19.75555555555556
  1
低域ユニット
 41
0.75
 11
-715.99999999999989
 21
1250.9027794444439
 31
0.0
 73
     3
  0
TEXT
  5
12A
  8
SPEC
  6
CONTINUOUS
 62
     7
 10
-715.99999999999989
 20
1268.647223888888
 30
0.0
 40
19.75555555555556
  1
公称カバレージ
 41
0.75
 11
-715.99999999999989
 21
1288.402779444443
 31
0.0
 73
     3
  0
TEXT
  5
12B
  8
SPEC
  6
CONTINUOUS
 62
     7
 10
-715.99999999999989
 20
1343.647223888888
 30
0.0
 40
19.75555555555556
  1
形式
 41
0.75
 11
-715.99999999999989
 21
1363.402779444443
 31
0.0
 73
     3
  0
TEXT
  5
12C
  8
SPEC
  6
CONTINUOUS
 62
     7
 10
-715.99999999999989
 20
1306.147223888888
 30
0.0
 40
19.75555555555556
  1
周波数レンジ (-10dB)
 41
0.75
 11
-715.99999999999989
 21
1325.9027794444439
 31
0.0
 73
     3
  0
TEXT
  5
12D
  8
SPEC
  6
CONTINUOUS
 62
     7
 10
-390.99999999999989
 20
781.14722388888845
 30
0.0
 40
19.75555555555556
  1
横方向 : 44゜ , 縦方向 : 37゜
 41
0.75
 11
-390.99999999999989
 21
800.90277944444415
 31
0.0
 73
     3
  0
TEXT
  5
12E
  8
SPEC
  6
CONTINUOUS
 62
     7
 10
-390.99999999999989
 20
856.14722388888845
 30
0.0
 40
19.75555555555556
  1
SPユニットは前面側で交換
 41
0.75
 11
-390.99999999999989
 21
875.90277944444415
 31
0.0
 73
     3
  0
TEXT
  5
12F
  8
SPEC
  6
CONTINUOUS
 62
     7
 10
-390.99999999999989
 20
818.64722388888845
 30
0.0
 40
19.75555555555556
  1
プッシュ式ターミナル
 41
0.75
 11
-390.99999999999989
 21
838.40277944444415
 31
0.0
 73
     3
  0
TEXT
  5
130
  8
SPEC
  6
CONTINUOUS
 62
     7
 10
-390.99999999999989
 20
743.64722388888845
 30
0.0
 40
19.75555555555556
  1
185(W)×235(H)×145(D)mm
 41
0.75
 11
-390.99999999999989
 21
763.40277944444415
 31
0.0
 73
     3
  0
TEXT
  5
131
  8
SPEC
  6
CONTINUOUS
 62
     7
 10
-390.99999999999989
 20
706.14722388888845
 30
0.0
 40
19.75555555555556
  1
約3.0kg
 41
0.75
 11
-390.99999999999989
 21
725.90277944444415
 31
0.0
 73
     3
  0
TEXT
  5
132
  8
SPEC
  6
CONTINUOUS
 62
     7
 10
-390.99999999999989
 20
1006.147223888888
 30
0.0
 40
19.75555555555556
  1
Mil-Std 810 , IPX4 Per IEC 529 (全天候型)
 41
0.75
 11
-390.99999999999989
 21
1025.902779444443
 31
0.0
 73
     3
  0
TEXT
  5
133
  8
SPEC
  6
CONTINUOUS
 62
     7
 10
-390.99999999999989
 20
1231.147223888888
 30
0.0
 40
19.75555555555556
  1
135mm (口径 : 5.25インチ)
 41
0.75
 11
-390.99999999999989
 21
1250.9027794444439
 31
0.0
 73
     3
  0
TEXT
  5
134
  8
SPEC
  6
CONTINUOUS
 62
     7
 10
-390.99999999999989
 20
1193.647223888888
 30
0.0
 40
19.75555555555556
  1
19mm (ダイアフラム径 : 0.75インチ)
 41
0.75
 11
-390.99999999999989
 21
1213.402779444443
 31
0.0
 73
     3
  0
TEXT
  5
135
  8
SPEC
  6
CONTINUOUS
 62
     7
 10
-390.99999999999989
 20
893.64722388888833
 30
0.0
 40
19.75555555555556
  1
正相 (低域) , 正相 (高域)
 41
0.75
 11
-390.99999999999989
 21
913.40277944444381
 31
0.0
 73
     3
  0
TEXT
  5
136
  8
SPEC
  6
CONTINUOUS
 62
     7
 10
-390.99999999999989
 20
936.64722388888833
 30
0.0
 40
19.75555555555556
  1
CONTROL 25-WH: 白
 41
0.75
 11
-390.99999999999989
 21
956.40277944444404
 31
0.0
 73
     3
  0
TEXT
  5
137
  8
SPEC
  6
CONTINUOUS
 62
     7
 10
-390.99999999999989
 20
1043.647223888888
 30
0.0
 40
19.75555555555556
  1
3.0kHz
 41
0.75
 11
-390.99999999999989
 21
1063.402779444443
 31
0.0
 73
     3
  0
TEXT
  5
138
  8
SPEC
  6
CONTINUOUS
 62
     7
 10
-390.99999999999989
 20
1156.147223888888
 30
0.0
 40
19.75555555555556
  1
88dB SPL
 41
0.75
 11
-390.99999999999989
 21
1175.902779444443
 31
0.0
 73
     3
  0
TEXT
  5
139
  8
SPEC
  6
CONTINUOUS
 62
     7
 10
-390.99999999999989
 20
1081.147223888888
 30
0.0
 40
19.75555555555556
  1
150W
 41
0.75
 11
-390.99999999999989
 21
1100.902779444443
 31
0.0
 73
     3
  0
TEXT
  5
13A
  8
SPEC
  6
CONTINUOUS
 62
     7
 10
-390.99999999999989
 20
1118.647223888888
 30
0.0
 40
19.75555555555556
  1
8Ω
 41
0.75
 11
-390.99999999999989
 21
1138.4027794444439
 31
0.0
 73
     3
  0
TEXT
  5
13B
  8
SPEC
  6
CONTINUOUS
 62
     7
 10
-390.99999999999989
 20
968.64722388888833
 30
0.0
 40
19.75555555555556
  1
CONTROL 25: 黒
 41
0.75
 11
-390.99999999999989
 21
988.40277944444381
 31
0.0
 73
     3
  0
TEXT
  5
13C
  8
SPEC
  6
CONTINUOUS
 62
     7
 10
-390.99999999999989
 20
1306.147223888888
 30
0.0
 40
19.75555555555556
  1
80Hz～16kHz
 41
0.75
 11
-390.99999999999989
 21
1325.9027794444439
 31
0.0
 73
     3
  0
TEXT
  5
13D
  8
SPEC
  6
CONTINUOUS
 62
     7
 10
-390.99999999999989
 20
1268.647223888888
 30
0.0
 40
19.75555555555556
  1
90゜×90゜
 41
0.75
 11
-390.99999999999989
 21
1288.402779444443
 31
0.0
 73
     3
  0
LINE
  5
13E
  8
SPEC
  6
CONTINUOUS
 62
     7
 10
-725.0
 20
659.28633500000001
 30
0.0
 11
750.0
 21
659.28633500000001
 31
0.0
  0
LINE
  5
13F
  8
SPEC
  6
CONTINUOUS
 62
     7
 10
-725.0
 20
696.78633500000001
 30
0.0
 11
750.0
 21
696.78633500000001
 31
0.0
  0
TEXT
  5
140
  8
SPEC
  6
CONTINUOUS
 62
     7
 10
-390.99999999999989
 20
668.64722388888845
 30
0.0
 40
19.75555555555556
  1
Invisiball取付金具(壁用 1本:約230g),六角レンチ
 41
0.75
 11
-390.99999999999989
 21
688.40277944444415
 31
0.0
 73
     3
  0
LINE
  5
141
  8
SPEC
  6
CONTINUOUS
 62
     7
 10
433.33274999999958
 20
549.99949999999944
 30
0.0
 11
433.33274999999958
 21
416.66649999999993
 31
0.0
  0
TEXT
  5
142
  8
SPEC
  6
CONTINUOUS
 62
     7
 10
490.8148533975604
 20
526.66622499999994
 30
0.0
 40
17.187457031249998
  1
ハイパス
 41
0.75
 11
490.8148533975604
 21
543.85368203124995
 31
0.0
 73
     3
  0
LINE
  5
143
  8
SPEC
  6
CONTINUOUS
 62
     7
 10
225.0
 20
516.66624999999931
 30
0.0
 11
225.0
 21
583.33274999999935
 31
0.0
  0
LINE
  5
144
  8
SPEC
  6
CONTINUOUS
 62
     7
 10
474.9999999999996
 20
466.66637499999968
 30
0.0
 11
475.0
 21
566.66612500000019
 31
0.0
  0
LINE
  5
145
  8
SPEC
  6
CONTINUOUS
 62
     7
 10
399.99949999999978
 20
516.66624999999931
 30
0.0
 11
399.99949999999978
 21
583.33274999999935
 31
0.0
  0
CIRCLE
  5
146
  8
SPEC
  6
CONTINUOUS
 62
     7
 10
800.0
 20
516.6662499999992
 30
0.0
 40
49.999875000000422
  0
CIRCLE
  5
147
  8
SPEC
  6
CONTINUOUS
 62
     7
 10
800.0
 20
516.6662499999992
 30
0.0
 40
33.33325000000012
  0
CIRCLE
  5
148
  8
SPEC
  6
CONTINUOUS
 62
     7
 10
800.0
 20
516.6662499999992
 30
0.0
 40
29.33326000000033
  0
ARC
  5
149
  8
SPEC
  6
CONTINUOUS
 62
     7
 10
800.0
 20
516.6662499999992
 30
0.0
 40
83.333124999999967
 50
168.4630409671845
 51
191.53695903281559
  0
LINE
  5
14A
  8
SPEC
  6
CONTINUOUS
 62
     7
 10
599.99899999999968
 20
466.66637499999962
 30
0.0
 11
599.99899999999968
 21
566.66612499999951
 31
0.0
  0
ARC
  5
14B
  8
SPEC
  6
CONTINUOUS
 62
     7
 10
800.0
 20
516.6662499999992
 30
0.0
 40
83.333125000000024
 50
348.46304096718438
 51
11.53695903281538
  0
TEXT
  5
14C
  8
SPEC
  6
CONTINUOUS
 62
     7
 10
899.99974999999995
 20
519.99544211739203
 30
0.0
 40
16.113240966796869
  1
Driver
 41
0.75
 11
899.99974999999995
 21
536.10868308418878
 31
0.0
 73
     3
  0
LINE
  5
14D
  8
SPEC
  6
CONTINUOUS
 62
     7
 10
474.9999999999996
 20
349.99999999999972
 30
0.0
 11
599.99899999999968
 21
349.99999999999972
 31
0.0
  0
LINE
  5
14E
  8
SPEC
  6
CONTINUOUS
 62
     7
 10
474.9999999999996
 20
333.33337499999988
 30
0.0
 11
599.99899999999968
 21
333.33337499999988
 31
0.0
  0
TEXT
  5
14F
  8
SPEC
  6
CONTINUOUS
 62
     7
 10
483.8448708500236
 20
366.96610341796799
 30
0.0
 40
17.187457031249998
  1
フィルター
 41
0.75
 11
483.8448708500236
 21
384.15356044921799
 31
0.0
 73
     3
  0
LINE
  5
150
  8
SPEC
  6
CONTINUOUS
 62
     7
 10
474.9999999999996
 20
416.66649999999993
 30
0.0
 11
599.99899999999968
 21
416.66649999999993
 31
0.0
  0
LINE
  5
151
  8
SPEC
  6
CONTINUOUS
 62
     7
 10
474.9999999999996
 20
433.3331249999996
 30
0.0
 11
599.99899999999968
 21
433.3331249999996
 31
0.0
  0
LINE
  5
152
  8
SPEC
  6
CONTINUOUS
 62
     7
 10
474.9999999999996
 20
466.66637499999962
 30
0.0
 11
599.99899999999968
 21
466.66637499999962
 31
0.0
  0
LINE
  5
153
  8
SPEC
  6
CONTINUOUS
 62
     7
 10
474.9999999999996
 20
483.33299999999957
 30
0.0
 11
599.99899999999968
 21
483.33299999999957
 31
0.0
  0
TEXT
  5
154
  8
SPEC
  6
CONTINUOUS
 62
     7
 10
483.8448708500236
 20
500.29910341796852
 30
0.0
 40
17.187457031249998
  1
フィルター
 41
0.75
 11
483.8448708500236
 21
517.48656044921847
 31
0.0
 73
     3
  0
LINE
  5
155
  8
SPEC
  6
CONTINUOUS
 62
     7
 10
150.0
 20
350.0000000000004
 30
0.0
 11
474.9999999999996
 21
349.9994999999991
 31
0.0
  0
LINE
  5
156
  8
SPEC
  6
CONTINUOUS
 62
     7
 10
225.0
 20
516.66624999999931
 30
0.0
 11
399.99949999999978
 21
516.66624999999931
 31
0.0
  0
LINE
  5
157
  8
SPEC
  6
CONTINUOUS
 62
     7
 10
91.666812500000546
 20
350.00000000000068
 30
0.0
 11
108.3334375000008
 21
350.00000000000068
 31
0.0
  0
LINE
  5
158
  8
SPEC
  6
CONTINUOUS
 62
     7
 10
131.2500000000004
 20
340.62500000000068
 30
0.0
 11
150.0
 21
350.0000000000004
 31
0.0
  0
LINE
  5
159
  8
SPEC
  6
CONTINUOUS
 62
     7
 10
131.2500000000004
 20
359.3750000000004
 30
0.0
 11
150.0
 21
350.0000000000004
 31
0.0
  0
TEXT
  5
15A
  8
SPEC
  6
CONTINUOUS
 62
     7
 10
116.6667500000007
 20
449.99974999999921
 30
0.0
 40
20.624948437499992
  1
INPUT
 41
0.75
 11
116.6667500000007
 21
470.62469843749921
 31
0.0
 73
     3
  0
LINE
  5
15B
  8
SPEC
  6
CONTINUOUS
 62
     7
 10
475.0
 20
199.99999999999969
 30
0.0
 11
625.0
 21
199.99999999999969
 31
0.0
  0
TEXT
  5
15C
  8
SPEC
  6
CONTINUOUS
 62
     7
 10
490.8148533975604
 20
393.33322499999912
 30
0.0
 40
17.187457031249998
  1
ローパス
 41
0.75
 11
490.8148533975604
 21
410.52068203124912
 31
0.0
 73
     3
  0
LINE
  5
15D
  8
SPEC
  6
CONTINUOUS
 62
     7
 10
449.99937499999942
 20
349.99999999999972
 30
0.0
 11
449.99937499999942
 21
483.33299999999957
 31
0.0
  0
LINE
  5
15E
  8
SPEC
  6
CONTINUOUS
 62
     7
 10
474.9999999999996
 20
333.33337500000022
 30
0.0
 11
474.9999999999996
 21
433.33312499999988
 31
0.0
  0
CIRCLE
  5
15F
  8
SPEC
  6
CONTINUOUS
 62
     7
 10
449.99937499999942
 20
349.99999999999881
 30
0.0
 40
3.515616210937424
  0
LINE
  5
160
  8
SPEC
  6
CONTINUOUS
 62
     7
 10
433.33274999999958
 20
416.66649999999993
 30
0.0
 11
474.9999999999996
 21
416.66649999999993
 31
0.0
  0
LINE
  5
161
  8
SPEC
  6
CONTINUOUS
 62
     7
 10
449.99937499999942
 20
483.33299999999957
 30
0.0
 11
474.9999999999996
 21
483.33299999999957
 31
0.0
  0
TEXT
  5
162
  8
SPEC
  6
CONTINUOUS
 62
     7
 10
506.61961885880459
 20
216.66662499999981
 30
0.0
 40
24.921875
  1
接続図
 41
0.75
 11
506.61961885880459
 21
241.58849999999981
 31
0.0
 73
     3
  0
LINE
  5
163
  8
SPEC
  6
CONTINUOUS
 62
     7
 10
847.14033422797252
 20
499.99962499999901
 30
0.0
 11
881.64945396862731
 21
499.99962499999901
 31
0.0
  0
ARC
  5
164
  8
SPEC
  6
CONTINUOUS
 62
     7
 10
870.73010523976802
 20
279.26989476023141
 30
0.0
 40
10.66663999999998
 50
273.13639239527521
 51
356.8636076047211
  0
ARC
  5
165
  8
SPEC
  6
CONTINUOUS
 62
     7
 10
870.73010523976802
 20
420.73010523976791
 30
0.0
 40
10.666639999999999
 50
3.1363923952777131
 51
86.86360760472229
  0
CIRCLE
  5
166
  8
SPEC
  6
CONTINUOUS
 62
     7
 10
800.0
 20
349.99999999999972
 30
0.0
 40
77.333140000000185
  0
ARC
  5
167
  8
SPEC
  6
CONTINUOUS
 62
     7
 10
799.99999999999955
 20
1570.0802831249939
 30
0.0
 40
1303.413408124994
 50
266.86360760472212
 51
273.13639239527771
  0
LINE
  5
168
  8
SPEC
  6
CONTINUOUS
 62
     7
 10
845.11833355699309
 20
328.45183355699299
 30
0.0
 11
856.44511788558384
 21
317.12504922840242
 31
0.0
  0
LINE
  5
169
  8
SPEC
  6
CONTINUOUS
 62
     7
 10
845.11833355699309
 20
371.54816644300649
 30
0.0
 11
856.44511788558236
 21
382.87495077159588
 31
0.0
  0
ARC
  5
16A
  8
SPEC
  6
CONTINUOUS
 62
     7
 10
799.99999999999955
 20
-870.08028312499482
 30
0.0
 40
1303.413408124994
 50
86.863607604722105
 51
93.136392395277795
  0
TEXT
  5
16B
  8
SPEC
  6
CONTINUOUS
 62
     7
 10
823.33327500000019
 20
208.33281249999979
 30
0.0
 40
17.187457031249998
  1
RED
 41
0.75
 11
823.33327500000019
 21
225.5202695312498
 31
0.0
 73
     3
  0
ARC
  5
16C
  8
SPEC
  6
CONTINUOUS
 62
     7
 10
2020.080283124995
 20
349.99999999999972
 30
0.0
 40
1303.413408124994
 50
176.86360760472209
 51
183.1363923952778
  0
ARC
  5
16D
  8
SPEC
  6
CONTINUOUS
 62
     7
 10
800.0
 20
349.99999999999972
 30
0.0
 40
68.718255297560034
 50
62.019655054720488
 51
117.9803449452782
  0
LINE
  5
16E
  8
SPEC
  6
CONTINUOUS
 62
     7
 10
599.99899999999968
 20
333.33337499999988
 30
0.0
 11
599.99899999999968
 21
433.3331249999996
 31
0.0
  0
CIRCLE
  5
16F
  8
SPEC
  6
CONTINUOUS
 62
     7
 10
800.0
 20
349.99999999999972
 30
0.0
 40
49.999874999999982
  0
LINE
  5
170
  8
SPEC
  6
CONTINUOUS
 62
     7
 10
778.45183355699282
 20
395.11833355699281
 30
0.0
 11
767.1250492284006
 21
406.44511788558577
 31
0.0
  0
LINE
  5
171
  8
SPEC
  6
CONTINUOUS
 62
     7
 10
821.54816644300661
 20
395.11833355699281
 30
0.0
 11
832.87495077160236
 21
406.44511788558879
 31
0.0
  0
ARC
  5
172
  8
SPEC
  6
CONTINUOUS
 62
     7
 10
729.26989476023164
 20
279.26989476023141
 30
0.0
 40
10.66663999999999
 50
183.1363923952764
 51
266.86360760471979
  0
CIRCLE
  5
173
  8
SPEC
  6
CONTINUOUS
 62
     7
 10
800.0
 20
349.99999999999972
 30
0.0
 40
41.384990297559852
  0
LINE
  5
174
  8
SPEC
  6
CONTINUOUS
 62
     7
 10
754.88166644300645
 20
371.54816644300649
 30
0.0
 11
743.55488211441832
 21
382.8749507715948
 31
0.0
  0
ARC
  5
175
  8
SPEC
  6
CONTINUOUS
 62
     7
 10
741.66926874529952
 20
380.9893374024756
 30
0.0
 40
2.6666600000003151
 50
44.99999999999654
 51
152.01965505472131
  0
LINE
  5
176
  8
SPEC
  6
CONTINUOUS
 62
     7
 10
754.88166644300645
 20
328.45183355699282
 30
0.0
 11
743.5548821144115
 21
317.12504922839702
 31
0.0
  0
ARC
  5
177
  8
SPEC
  6
CONTINUOUS
 62
     7
 10
741.66926874529236
 20
319.0106625975161
 30
0.0
 40
2.6666600000000158
 50
207.9803449452786
 51
314.99999999999642
  0
LINE
  5
178
  8
SPEC
  6
CONTINUOUS
 62
     7
 10
778.45183355699282
 20
304.8816664430064
 30
0.0
 11
767.12504922840378
 21
293.55488211441718
 31
0.0
  0
ARC
  5
179
  8
SPEC
  6
CONTINUOUS
 62
     7
 10
769.0106625975227
 20
291.66926874529821
 30
0.0
 40
2.6666600000003151
 50
135.0000000000035
 51
242.0196550547256
  0
LINE
  5
17A
  8
SPEC
  6
CONTINUOUS
 62
     7
 10
821.54816644300661
 20
304.88166644300679
 30
0.0
 11
832.87495077159952
 21
293.55488211441377
 31
0.0
  0
ARC
  5
17B
  8
SPEC
  6
CONTINUOUS
 62
     7
 10
830.98933740248037
 20
291.66926874529503
 30
0.0
 40
2.6666600000001242
 50
297.98034494528292
 51
44.999999999996568
  0
ARC
  5
17C
  8
SPEC
  6
CONTINUOUS
 62
     7
 10
800.0
 20
349.99999999999972
 30
0.0
 40
68.718255297559935
 50
152.01965505472339
 51
207.9803449452794
  0
ARC
  5
17D
  8
SPEC
  6
CONTINUOUS
 62
     7
 10
800.0
 20
349.99999999999972
 30
0.0
 40
68.718255297559935
 50
242.01965505472299
 51
297.9803449452782
  0
LINE
  5
17E
  8
SPEC
  6
CONTINUOUS
 62
     7
 10
790.00002499999982
 20
296.6667999999994
 30
0.0
 11
790.00002499999982
 21
301.01032761882328
 31
0.0
  0
LINE
  5
17F
  8
SPEC
  6
CONTINUOUS
 62
     7
 10
780.0000500000001
 20
296.66680000000002
 30
0.0
 11
780.0000500000001
 21
304.17435761483398
 31
0.0
  0
LINE
  5
180
  8
SPEC
  6
CONTINUOUS
 62
     7
 10
819.99994999999944
 20
296.66679999999968
 30
0.0
 11
809.99997499999961
 21
296.6667999999994
 31
0.0
  0
LINE
  5
181
  8
SPEC
  6
CONTINUOUS
 62
     7
 10
809.99997499999961
 20
296.6667999999994
 30
0.0
 11
809.99997499999961
 21
301.01032761882328
 31
0.0
  0
LINE
  5
182
  8
SPEC
  6
CONTINUOUS
 62
     7
 10
819.99994999999944
 20
296.66680000000002
 30
0.0
 11
819.99994999999944
 21
304.17435761483398
 31
0.0
  0
LINE
  5
183
  8
SPEC
  6
CONTINUOUS
 62
     7
 10
780.0000500000001
 20
296.66679999999968
 30
0.0
 11
790.00002499999982
 21
296.6667999999994
 31
0.0
  0
TEXT
  5
184
  8
SPEC
  6
CONTINUOUS
 62
     7
 10
778.82839028007083
 20
316.66674999999941
 30
0.0
 40
20.624948437499992
  1
-
 41
0.75
 11
778.82839028007083
 21
337.29169843749929
 31
0.0
 73
     3
  0
TEXT
  5
185
  8
SPEC
  6
CONTINUOUS
 62
     7
 10
808.82831528007046
 20
316.66674999999941
 30
0.0
 40
20.624948437499992
  1
+
 41
0.75
 11
808.82831528007046
 21
337.29169843749929
 31
0.0
 73
     3
  0
LINE
  5
186
  8
SPEC
  6
CONTINUOUS
 62
     7
 10
785.00003749999985
 20
216.66699999999989
 30
0.0
 11
785.00003749999985
 21
296.6667999999994
 31
0.0
  0
TEXT
  5
187
  8
SPEC
  6
CONTINUOUS
 62
     7
 10
741.29218266434191
 20
225.00031249999981
 30
0.0
 40
17.187457031249998
  1
BLK
 41
0.75
 11
741.29218266434191
 21
242.18776953124981
 31
0.0
 73
     3
  0
ARC
  5
188
  8
SPEC
  6
CONTINUOUS
 62
     7
 10
769.01066259751951
 20
408.33073125470492
 30
0.0
 40
2.6666599999999101
 50
117.9803449452743
 51
225.0000000000035
  0
ARC
  5
189
  8
SPEC
  6
CONTINUOUS
 62
     7
 10
830.98933740248344
 20
408.33073125470793
 30
0.0
 40
2.6666600000003151
 50
315.00000000000352
 51
62.019655054717042
  0
LINE
  5
18A
  8
SPEC
  6
CONTINUOUS
 62
     7
 10
700.0014999999994
 20
216.6669999999996
 30
0.0
 11
700.0014999999994
 21
349.99999999999972
 31
0.0
  0
LINE
  5
18B
  8
SPEC
  6
CONTINUOUS
 62
     7
 10
700.0014999999994
 20
216.66699999999989
 30
0.0
 11
785.00003749999985
 21
216.66699999999989
 31
0.0
  0
TEXT
  5
18C
  8
SPEC
  6
CONTINUOUS
 62
     7
 10
625.00049999999908
 20
358.33331249999941
 30
0.0
 40
17.187457031249998
  1
L.F.-
 41
0.75
 11
625.00049999999908
 21
375.52076953124941
 31
0.0
 73
     3
  0
LINE
  5
18D
  8
SPEC
  6
CONTINUOUS
 62
     7
 10
599.99899999999968
 20
349.9999999999992
 30
0.0
 11
700.00149999999894
 21
349.9999999999992
 31
0.0
  0
ARC
  5
18E
  8
SPEC
  6
CONTINUOUS
 62
     7
 10
729.26989476023164
 20
420.73010523976791
 30
0.0
 40
10.666639999999999
 50
93.136392395277724
 51
176.8636076047211
  0
TEXT
  5
18F
  8
SPEC
  6
CONTINUOUS
 62
     7
 10
625.00049999999908
 20
424.99981249999968
 30
0.0
 40
17.187457031249998
  1
L.F.+
 41
0.75
 11
625.00049999999908
 21
442.18726953124968
 31
0.0
 73
     3
  0
LINE
  5
190
  8
SPEC
  6
CONTINUOUS
 62
     7
 10
599.99899999999968
 20
416.66649999999959
 30
0.0
 11
683.33487499999967
 21
416.66649999999959
 31
0.0
  0
LINE
  5
191
  8
SPEC
  6
CONTINUOUS
 62
     7
 10
718.35054603137257
 20
499.99962499999901
 30
0.0
 11
752.85966577202669
 21
499.99962499999901
 31
0.0
  0
CIRCLE
  5
192
  8
SPEC
  6
CONTINUOUS
 62
     7
 10
725.0001874999997
 20
516.6662499999992
 30
0.0
 40
2.6666599999998639
  0
LINE
  5
193
  8
SPEC
  6
CONTINUOUS
 62
     7
 10
790.00002500000028
 20
479.33300999999938
 30
0.0
 11
809.99997499999961
 21
479.33300999999938
 31
0.0
  0
LINE
  5
194
  8
SPEC
  6
CONTINUOUS
 62
     7
 10
790.00002500000028
 20
484.86835611436771
 30
0.0
 11
790.00002500000028
 21
479.33300999999938
 31
0.0
  0
LINE
  5
195
  8
SPEC
  6
CONTINUOUS
 62
     7
 10
809.99997499999961
 20
484.86835611436771
 30
0.0
 11
809.99997499999961
 21
479.33300999999938
 31
0.0
  0
TEXT
  5
196
  8
SPEC
  6
CONTINUOUS
 62
     7
 10
625.00049999999965
 20
491.66631249999921
 30
0.0
 40
17.187457031249998
  1
H.F.-
 41
0.75
 11
625.00049999999965
 21
508.85376953124921
 31
0.0
 73
     3
  0
LINE
  5
197
  8
SPEC
  6
CONTINUOUS
 62
     7
 10
599.99899999999968
 20
483.33299999999889
 30
0.0
 11
800.0
 21
483.33299999999889
 31
0.0
  0
TEXT
  5
198
  8
SPEC
  6
CONTINUOUS
 62
     7
 10
691.66700000000014
 20
458.33306249999879
 30
0.0
 40
17.187457031249998
  1
BLK
 41
0.75
 11
691.66700000000014
 21
475.52051953124879
 31
0.0
 73
     3
  0
TEXT
  5
199
  8
SPEC
  6
CONTINUOUS
 62
     7
 10
747.91681250000045
 20
458.33306249999868
 30
0.0
 40
20.624948437499992
  1
-
 41
0.75
 11
747.91681250000045
 21
478.95801093749878
 31
0.0
 73
     3
  0
LINE
  5
19A
  8
SPEC
  6
CONTINUOUS
 62
     7
 10
683.33487499999967
 20
199.99949999999939
 30
0.0
 11
814.99996250000038
 21
199.99949999999939
 31
0.0
  0
LINE
  5
19B
  8
SPEC
  6
CONTINUOUS
 62
     7
 10
683.3348749999991
 20
199.99949999999961
 30
0.0
 11
683.33487499999967
 21
416.66649999999959
 31
0.0
  0
LINE
  5
19C
  8
SPEC
  6
CONTINUOUS
 62
     7
 10
814.99996249999879
 20
199.99949999999939
 30
0.0
 11
814.9999624999997
 21
296.6667999999994
 31
0.0
  0
ARC
  5
19D
  8
SPEC
  6
CONTINUOUS
 62
     7
 10
858.33073125470241
 20
319.01066259752128
 30
0.0
 40
2.6666599999999931
 50
225.0000000000035
 51
332.01965505472123
  0
ARC
  5
19E
  8
SPEC
  6
CONTINUOUS
 62
     7
 10
858.33073125470105
 20
380.98933740247691
 30
0.0
 40
2.6666599999999101
 50
27.98034494527435
 51
134.9999999999965
  0
ARC
  5
19F
  8
SPEC
  6
CONTINUOUS
 62
     7
 10
800.0
 20
349.99999999999972
 30
0.0
 40
68.718255297559963
 50
332.01965505472248
 51
27.98034494527689
  0
CIRCLE
  5
1A0
  8
SPEC
  6
CONTINUOUS
 62
     7
 10
874.99981250000064
 20
516.6662499999992
 30
0.0
 40
2.6666599999998639
  0
ARC
  5
1A1
  8
SPEC
  6
CONTINUOUS
 62
     7
 10
-420.08028312499482
 20
350.00000000000023
 30
0.0
 40
1303.413408124994
 50
356.86360760472218
 51
3.1363923952778232
  0
TEXT
  5
1A2
  8
SPEC
  6
CONTINUOUS
 62
     7
 10
899.99974999999995
 20
386.662442117392
 30
0.0
 40
16.113240966796869
  1
Driver
 41
0.75
 11
899.99974999999995
 21
402.77568308418893
 31
0.0
 73
     3
  0
TEXT
  5
1A3
  8
SPEC
  6
CONTINUOUS
 62
     7
 10
899.99974999999995
 20
366.66662499999978
 30
0.0
 40
16.113240966796869
  1
Low Freq
 41
0.75
 11
899.99974999999995
 21
382.77986596679659
 31
0.0
 73
     3
  0
TEXT
  5
1A4
  8
SPEC
  6
CONTINUOUS
 62
     7
 10
899.99974999999995
 20
346.6708078826079
 30
0.0
 40
16.113240966796869
  1
135mm
 41
0.75
 11
899.99974999999995
 21
362.78404884940483
 31
0.0
 73
     3
  0
TEXT
  5
1A5
  8
SPEC
  6
CONTINUOUS
 62
     7
 10
899.99974999999995
 20
480.00380788260708
 30
0.0
 40
16.113240966796869
  1
19mm
 41
0.75
 11
899.99974999999995
 21
496.11704884940389
 31
0.0
 73
     3
  0
TEXT
  5
1A6
  8
SPEC
  6
CONTINUOUS
 62
     7
 10
899.99974999999995
 20
499.99962499999913
 30
0.0
 40
16.113240966796869
  1
High Freq
 41
0.75
 11
899.99974999999995
 21
516.11286596679588
 31
0.0
 73
     3
  0
LINE
  5
1A7
  8
SPEC
  6
CONTINUOUS
 62
     7
 10
474.9999999999996
 20
549.9994999999999
 30
0.0
 11
599.99899999999968
 21
549.99949999999944
 31
0.0
  0
LINE
  5
1A8
  8
SPEC
  6
CONTINUOUS
 62
     7
 10
474.9999999999996
 20
566.66612499999985
 30
0.0
 11
599.99899999999968
 21
566.66612499999951
 31
0.0
  0
LINE
  5
1A9
  8
SPEC
  6
CONTINUOUS
 62
     7
 10
225.0
 20
583.33274999999935
 30
0.0
 11
399.99949999999978
 21
583.33274999999935
 31
0.0
  0
TEXT
  5
1AA
  8
SPEC
  6
CONTINUOUS
 62
     7
 10
237.304625488281
 20
553.12449218749919
 30
0.0
 40
17.187457031249998
  1
ソニックガード
 41
0.75
 11
237.304625488281
 21
570.31194921874908
 31
0.0
 73
     3
  0
LINE
  5
1AB
  8
SPEC
  6
CONTINUOUS
 62
     7
 10
150.0
 20
549.99949999999922
 30
0.0
 11
225.0
 21
549.99949999999899
 31
0.0
  0
LINE
  5
1AC
  8
SPEC
  6
CONTINUOUS
 62
     7
 10
100.00012500000039
 20
541.66618749999907
 30
0.0
 11
100.00012500000039
 21
558.33281249999925
 31
0.0
  0
LINE
  5
1AD
  8
SPEC
  6
CONTINUOUS
 62
     7
 10
91.666812500000546
 20
549.99949999999922
 30
0.0
 11
108.3334375000008
 21
549.99949999999922
 31
0.0
  0
LINE
  5
1AE
  8
SPEC
  6
CONTINUOUS
 62
     7
 10
131.2500000000004
 20
540.62449999999922
 30
0.0
 11
150.0
 21
549.99949999999922
 31
0.0
  0
LINE
  5
1AF
  8
SPEC
  6
CONTINUOUS
 62
     7
 10
131.2500000000004
 20
559.37449999999944
 30
0.0
 11
150.0
 21
549.99949999999922
 31
0.0
  0
CIRCLE
  5
1B0
  8
SPEC
  6
CONTINUOUS
 62
     7
 10
433.33274999999958
 20
549.99949999999865
 30
0.0
 40
3.515616210937424
  0
LINE
  5
1B1
  8
SPEC
  6
CONTINUOUS
 62
     7
 10
399.99949999999978
 20
549.99949999999944
 30
0.0
 11
474.9999999999996
 21
549.99949999999944
 31
0.0
  0
TEXT
  5
1B2
  8
SPEC
  6
CONTINUOUS
 62
     7
 10
291.01542871093761
 20
529.99954999999875
 30
0.0
 40
17.187457031249998
  1
回路
 41
0.75
 11
291.01542871093761
 21
547.18700703124887
 31
0.0
 73
     3
  0
LINE
  5
1B3
  8
SPEC
  6
CONTINUOUS
 62
     7
 10
847.1403342279732
 20
533.33287499999915
 30
0.0
 11
881.64945396862731
 21
533.33287499999915
 31
0.0
  0
TEXT
  5
1B4
  8
SPEC
  6
CONTINUOUS
 62
     7
 10
747.91681250000011
 20
558.33281249999879
 30
0.0
 40
20.624948437499992
  1
+
 41
0.75
 11
747.91681250000011
 21
578.95776093749885
 31
0.0
 73
     3
  0
TEXT
  5
1B5
  8
SPEC
  6
CONTINUOUS
 62
     7
 10
691.6669999999998
 20
558.33281249999868
 30
0.0
 40
17.187457031249998
  1
BLUE
 41
0.75
 11
691.6669999999998
 21
575.5202695312488
 31
0.0
 73
     3
  0
LINE
  5
1B6
  8
SPEC
  6
CONTINUOUS
 62
     7
 10
718.35054603137257
 20
533.33287499999915
 30
0.0
 11
752.85966577202669
 21
533.33287499999915
 31
0.0
  0
LINE
  5
1B7
  8
SPEC
  6
CONTINUOUS
 62
     7
 10
790.00002500000028
 20
553.99948999999913
 30
0.0
 11
809.99997499999961
 21
553.99948999999913
 31
0.0
  0
LINE
  5
1B8
  8
SPEC
  6
CONTINUOUS
 62
     7
 10
790.00002500000028
 20
548.46414388563062
 30
0.0
 11
790.00002500000028
 21
553.99948999999913
 31
0.0
  0
LINE
  5
1B9
  8
SPEC
  6
CONTINUOUS
 62
     7
 10
809.99997499999961
 20
548.46414388563062
 30
0.0
 11
809.99997499999961
 21
553.99948999999913
 31
0.0
  0
TEXT
  5
1BA
  8
SPEC
  6
CONTINUOUS
 62
     7
 10
625.00049999999965
 20
558.33281249999925
 30
0.0
 40
17.187457031249998
  1
H.F.+
 41
0.75
 11
625.00049999999965
 21
575.52026953124926
 31
0.0
 73
     3
  0
LINE
  5
1BB
  8
SPEC
  6
CONTINUOUS
 62
     7
 10
599.99899999999968
 20
549.99949999999944
 30
0.0
 11
800.0
 21
549.99949999999944
 31
0.0
  0
TEXT
  5
1BC
  8
DIMNSIONS
  6
CONTINUOUS
 62
     7
 10
-100.0
 20
-1003.613764999999
 30
0.0
 40
25.399999999999999
  1
(単位：mm)
 41
0.75
 11
-100.0
 21
-978.21376499999985
 31
0.0
 73
     3
  0
TEXT
  5
1BD
  8
DIMNSIONS
  6
CONTINUOUS
 62
     7
 10
-761.66666666666674
 20
-558.4666666666667
 30
0.0
 40
22.577777777777769
  1
可変振り角度（スピーカ）横方向
 41
0.75
 11
-761.66666666666674
 21
-535.88888888888891
 31
0.0
 73
     3
  0
TEXT
  5
1BE
  8
DIMNSIONS
  6
CONTINUOUS
 62
     7
 10
-449.99999999999989
 20
-859.94189878523105
 30
0.0
 40
22.577777777777769
  1
（スピーカ）縦方向
 41
0.75
 11
-449.99999999999989
 21
-837.36412100745315
 31
0.0
 73
     3
  0
TEXT
  5
1BF
  8
DIMNSIONS
  6
CONTINUOUS
 62
     7
 10
-449.99999999999989
 20
-819.06689878523082
 30
0.0
 40
22.577777777777769
  1
可変振り角度
 41
0.75
 11
-449.99999999999989
 21
-796.48912100745315
 31
0.0
 73
     3
  0
TEXT
  5
1C0
  8
DIMNSIONS
  6
CONTINUOUS
 62
     7
 10
-249.99999999999989
 20
-261.88611111111112
 30
0.0
 40
25.399999999999999
  1
注1) スピーカの角度をつけた時の寸法です。
 41
0.75
 11
-249.99999999999989
 21
-236.48611111111109
 31
0.0
 73
     3
  0
LINE
  5
1C1
  8
DIMNSIONS
  6
CONTINUOUS
 62
     7
 10
-655.0
 20
300.00000000000028
 30
0.0
 11
-704.99999999999977
 21
300.00000000000028
 31
0.0
  0
LINE
  5
1C2
  8
DIMNSIONS
  6
CONTINUOUS
 62
     7
 10
-620.0
 20
204.60000000000039
 30
0.0
 11
-704.99999999999977
 21
204.60000000000039
 31
0.0
  0
LINE
  5
1C4
  8
DIMNSIONS
  6
CONTINUOUS
 62
     7
 10
-684.99999999999977
 20
300.00000000000028
 30
0.0
 11
-678.29960204849749
 21
274.99377441406273
 31
0.0
  0
LINE
  5
1C5
  8
DIMNSIONS
  6
CONTINUOUS
 62
     7
 10
-684.99999999999977
 20
300.00000000000028
 30
0.0
 11
-691.70039795150228
 21
274.99377441406273
 31
0.0
  0
LINE
  5
1C6
  8
DIMNSIONS
  6
CONTINUOUS
 62
     7
 10
-684.99999999999977
 20
204.60000000000039
 30
0.0
 11
-691.70039795150228
 21
229.60622558593781
 31
0.0
  0
LINE
  5
1C7
  8
DIMNSIONS
  6
CONTINUOUS
 62
     7
 10
-684.99999999999977
 20
204.60000000000039
 30
0.0
 11
-678.29960204849749
 21
229.60622558593781
 31
0.0
  0
LINE
  5
1C3
  8
DIMNSIONS
  6
CONTINUOUS
 62
     7
 10
-684.99999999999977
 20
300.00000000000028
 30
0.0
 11
-684.99999999999977
 21
204.60000000000039
 31
0.0
  0
TEXT
  5
1C8
  8
DIMNSIONS
  6
CONTINUOUS
 62
     7
 10
-697.05555555555543
 20
217.02222222222241
 30
0.0
 40
28.222222222222221
  1
95.4
 50
90.0
 41
0.75
 11
-725.27777777777771
 21
217.02222222222241
 31
0.0
 73
     3
  0
LINE
  5
1C9
  8
DIMNSIONS
  6
CONTINUOUS
 62
     7
 10
-650.99999999999977
 20
169.99999999999969
 30
0.0
 11
-704.99999999999977
 21
169.99999999999969
 31
0.0
  0
LINE
  5
1CA
  8
DIMNSIONS
  6
CONTINUOUS
 62
     7
 10
-651.0
 20
80.000000000000213
 30
0.0
 11
-704.99999999999977
 21
80.000000000000213
 31
0.0
  0
LINE
  5
1CC
  8
DIMNSIONS
  6
CONTINUOUS
 62
     7
 10
-684.99999999999977
 20
169.99999999999969
 30
0.0
 11
-678.29960204849749
 21
144.99377441406219
 31
0.0
  0
LINE
  5
1CD
  8
DIMNSIONS
  6
CONTINUOUS
 62
     7
 10
-684.99999999999977
 20
169.99999999999969
 30
0.0
 11
-691.70039795150228
 21
144.99377441406219
 31
0.0
  0
LINE
  5
1CE
  8
DIMNSIONS
  6
CONTINUOUS
 62
     7
 10
-684.99999999999977
 20
80.000000000000213
 30
0.0
 11
-691.70039795150228
 21
105.0062255859377
 31
0.0
  0
LINE
  5
1CF
  8
DIMNSIONS
  6
CONTINUOUS
 62
     7
 10
-684.99999999999977
 20
80.000000000000213
 30
0.0
 11
-678.29960204849749
 21
105.0062255859377
 31
0.0
  0
LINE
  5
1CB
  8
DIMNSIONS
  6
CONTINUOUS
 62
     7
 10
-684.99999999999977
 20
169.99999999999969
 30
0.0
 11
-684.99999999999977
 21
80.000000000000213
 31
0.0
  0
TEXT
  5
1D0
  8
DIMNSIONS
  6
CONTINUOUS
 62
     7
 10
-697.05555555555543
 20
107.3611111111111
 30
0.0
 40
28.222222222222221
  1
90
 50
90.0
 41
0.75
 11
-725.27777777777771
 21
107.3611111111111
 31
0.0
 73
     3
  0
LINE
  5
1D1
  8
DIMNSIONS
  6
CONTINUOUS
 62
     7
 10
-635.0
 20
63.00000000000022
 30
0.0
 11
-635.0
 21
5.000000000000397
 31
0.0
  0
LINE
  5
1D2
  8
DIMNSIONS
  6
CONTINUOUS
 62
     7
 10
-564.99999999999955
 20
63.00000000000022
 30
0.0
 11
-564.99999999999955
 21
5.000000000000397
 31
0.0
  0
LINE
  5
1D4
  8
DIMNSIONS
  6
CONTINUOUS
 62
     7
 10
-635.0
 20
25.000000000000401
 30
0.0
 11
-609.9937744140625
 21
31.700397951502818
 31
0.0
  0
LINE
  5
1D5
  8
DIMNSIONS
  6
CONTINUOUS
 62
     7
 10
-635.0
 20
25.000000000000401
 30
0.0
 11
-609.9937744140625
 21
18.29960204849797
 31
0.0
  0
LINE
  5
1D6
  8
DIMNSIONS
  6
CONTINUOUS
 62
     7
 10
-564.99999999999955
 20
25.000000000000401
 30
0.0
 11
-590.00622558593693
 21
18.299602048497949
 31
0.0
  0
LINE
  5
1D7
  8
DIMNSIONS
  6
CONTINUOUS
 62
     7
 10
-564.99999999999955
 20
25.000000000000401
 30
0.0
 11
-590.00622558593693
 21
31.70039795150284
 31
0.0
  0
LINE
  5
1D3
  8
DIMNSIONS
  6
CONTINUOUS
 62
     7
 10
-635.0
 20
25.000000000000401
 30
0.0
 11
-564.99999999999955
 21
25.000000000000401
 31
0.0
  0
TEXT
  5
1D8
  8
DIMNSIONS
  6
CONTINUOUS
 62
     7
 10
-617.6388888888888
 20
37.055555555555941
 30
0.0
 40
28.222222222222221
  1
70
 41
0.75
 11
-617.6388888888888
 21
65.277777777778169
 31
0.0
 73
     3
  0
LINE
  5
1D9
  8
DIMNSIONS
  6
CONTINUOUS
 62
     7
 10
-387.5
 20
187.0000000000002
 30
0.0
 11
-387.5
 21
345.00000000000063
 31
0.0
  0
LINE
  5
1DA
  8
DIMNSIONS
  6
CONTINUOUS
 62
     7
 10
-317.5
 20
187.0000000000002
 30
0.0
 11
-317.5
 21
345.00000000000063
 31
0.0
  0
LINE
  5
1DC
  8
DIMNSIONS
  6
CONTINUOUS
 62
     7
 10
-387.5
 20
325.00000000000063
 30
0.0
 11
-362.4937744140625
 21
331.70039795150308
 31
0.0
  0
LINE
  5
1DD
  8
DIMNSIONS
  6
CONTINUOUS
 62
     7
 10
-387.5
 20
325.00000000000063
 30
0.0
 11
-362.4937744140625
 21
318.29960204849812
 31
0.0
  0
LINE
  5
1DE
  8
DIMNSIONS
  6
CONTINUOUS
 62
     7
 10
-317.5
 20
325.00000000000063
 30
0.0
 11
-342.5062255859375
 21
318.29960204849812
 31
0.0
  0
LINE
  5
1DF
  8
DIMNSIONS
  6
CONTINUOUS
 62
     7
 10
-317.5
 20
325.00000000000063
 30
0.0
 11
-342.5062255859375
 21
331.70039795150308
 31
0.0
  0
LINE
  5
1DB
  8
DIMNSIONS
  6
CONTINUOUS
 62
     7
 10
-387.5
 20
325.00000000000063
 30
0.0
 11
-317.5
 21
325.00000000000063
 31
0.0
  0
TEXT
  5
1E0
  8
DIMNSIONS
  6
CONTINUOUS
 62
     7
 10
-370.1388888888888
 20
337.05555555555611
 30
0.0
 40
28.222222222222221
  1
70
 41
0.75
 11
-370.1388888888888
 21
365.27777777777828
 31
0.0
 73
     3
  0
LINE
  5
1E1
  8
DIMNSIONS
  6
CONTINUOUS
 62
     7
 10
-377.50000000000051
 20
145.0
 30
0.0
 11
-377.50000000000051
 21
220.00000000000051
 31
0.0
  0
LINE
  5
1E2
  8
DIMNSIONS
  6
CONTINUOUS
 62
     7
 10
-352.49999999999989
 20
179.5000000000002
 30
0.0
 11
-352.49999999999989
 21
220.00000000000051
 31
0.0
  0
LINE
  5
1E3
  8
DIMNSIONS
  6
CONTINUOUS
 62
     7
 10
-352.49999999999989
 20
200.0000000000006
 30
0.0
 11
-377.50000000000051
 21
200.0000000000006
 31
0.0
  0
LINE
  5
1E5
  8
DIMNSIONS
  6
CONTINUOUS
 62
     7
 10
-377.50000000000051
 20
200.0000000000006
 30
0.0
 11
-402.50622558593801
 21
193.2996020484982
 31
0.0
  0
LINE
  5
1E6
  8
DIMNSIONS
  6
CONTINUOUS
 62
     7
 10
-377.50000000000051
 20
200.0000000000006
 30
0.0
 11
-402.50622558593801
 21
206.70039795150311
 31
0.0
  0
LINE
  5
1E4
  8
DIMNSIONS
  6
CONTINUOUS
 62
     7
 10
-377.50000000000051
 20
200.0000000000006
 30
0.0
 11
-445.2777777777776
 21
200.0000000000006
 31
0.0
  0
LINE
  5
1E8
  8
DIMNSIONS
  6
CONTINUOUS
 62
     7
 10
-352.49999999999989
 20
200.0000000000006
 30
0.0
 11
-327.4937744140625
 21
206.70039795150299
 31
0.0
  0
LINE
  5
1E9
  8
DIMNSIONS
  6
CONTINUOUS
 62
     7
 10
-352.49999999999989
 20
200.0000000000006
 30
0.0
 11
-327.4937744140625
 21
193.2996020484982
 31
0.0
  0
LINE
  5
1E7
  8
DIMNSIONS
  6
CONTINUOUS
 62
     7
 10
-352.49999999999989
 20
200.0000000000006
 30
0.0
 11
-302.49999999999989
 21
200.0000000000006
 31
0.0
  0
TEXT
  5
1EA
  8
DIMNSIONS
  6
CONTINUOUS
 62
     7
 10
-445.27777777777771
 20
212.05555555555611
 30
0.0
 40
28.222222222222221
  1
25
 41
0.75
 11
-445.27777777777771
 21
240.27777777777831
 31
0.0
 73
     3
  0
LINE
  5
1EB
  8
DIMNSIONS
  6
CONTINUOUS
 62
     7
 10
-327.50000000000028
 20
145.0
 30
0.0
 11
-327.50000000000028
 21
295.00000000000063
 31
0.0
  0
LINE
  5
1EC
  8
DIMNSIONS
  6
CONTINUOUS
 62
     7
 10
-317.5
 20
187.0000000000002
 30
0.0
 11
-317.5
 21
295.00000000000063
 31
0.0
  0
LINE
  5
1ED
  8
DIMNSIONS
  6
CONTINUOUS
 62
     7
 10
-317.5
 20
275.00000000000063
 30
0.0
 11
-327.50000000000028
 21
275.00000000000063
 31
0.0
  0
LINE
  5
1EF
  8
DIMNSIONS
  6
CONTINUOUS
 62
     7
 10
-327.50000000000028
 20
275.00000000000063
 30
0.0
 11
-352.5062255859379
 21
268.29960204849812
 31
0.0
  0
LINE
  5
1F0
  8
DIMNSIONS
  6
CONTINUOUS
 62
     7
 10
-327.50000000000028
 20
275.00000000000063
 30
0.0
 11
-352.5062255859379
 21
281.70039795150302
 31
0.0
  0
LINE
  5
1EE
  8
DIMNSIONS
  6
CONTINUOUS
 62
     7
 10
-327.50000000000028
 20
275.00000000000063
 30
0.0
 11
-377.50000000000051
 21
275.00000000000063
 31
0.0
  0
LINE
  5
1F2
  8
DIMNSIONS
  6
CONTINUOUS
 62
     7
 10
-317.5
 20
275.00000000000063
 30
0.0
 11
-292.49377441406239
 21
281.70039795150302
 31
0.0
  0
LINE
  5
1F3
  8
DIMNSIONS
  6
CONTINUOUS
 62
     7
 10
-317.5
 20
275.00000000000063
 30
0.0
 11
-292.49377441406239
 21
268.29960204849812
 31
0.0
  0
LINE
  5
1F1
  8
DIMNSIONS
  6
CONTINUOUS
 62
     7
 10
-317.5
 20
275.00000000000063
 30
0.0
 11
-249.722222222222
 21
275.00000000000063
 31
0.0
  0
TEXT
  5
1F4
  8
DIMNSIONS
  6
CONTINUOUS
 62
     7
 10
-284.99999999999977
 20
287.05555555555611
 30
0.0
 40
28.222222222222221
  1
10
 41
0.75
 11
-284.99999999999977
 21
315.27777777777828
 31
0.0
 73
     3
  0
LINE
  5
1F5
  8
DIMNSIONS
  6
CONTINUOUS
 62
     7
 10
-327.50000000000028
 20
145.0
 30
0.0
 11
-327.50000000000028
 21
245.00000000000051
 31
0.0
  0
LINE
  5
1F6
  8
DIMNSIONS
  6
CONTINUOUS
 62
     7
 10
-352.49999999999989
 20
179.5000000000002
 30
0.0
 11
-352.49999999999989
 21
245.00000000000051
 31
0.0
  0
LINE
  5
1F7
  8
DIMNSIONS
  6
CONTINUOUS
 62
     7
 10
-352.49999999999989
 20
225.0000000000006
 30
0.0
 11
-327.50000000000028
 21
225.0000000000006
 31
0.0
  0
LINE
  5
1F9
  8
DIMNSIONS
  6
CONTINUOUS
 62
     7
 10
-327.50000000000028
 20
225.0000000000006
 30
0.0
 11
-302.4937744140629
 21
231.70039795150299
 31
0.0
  0
LINE
  5
1FA
  8
DIMNSIONS
  6
CONTINUOUS
 62
     7
 10
-327.50000000000028
 20
225.0000000000006
 30
0.0
 11
-302.4937744140629
 21
218.29960204849809
 31
0.0
  0
LINE
  5
1F8
  8
DIMNSIONS
  6
CONTINUOUS
 62
     7
 10
-327.50000000000028
 20
225.0000000000006
 30
0.0
 11
-249.722222222222
 21
225.0000000000006
 31
0.0
  0
LINE
  5
1FC
  8
DIMNSIONS
  6
CONTINUOUS
 62
     7
 10
-352.49999999999989
 20
225.0000000000006
 30
0.0
 11
-377.5062255859375
 21
218.29960204849809
 31
0.0
  0
LINE
  5
1FD
  8
DIMNSIONS
  6
CONTINUOUS
 62
     7
 10
-352.49999999999989
 20
225.0000000000006
 30
0.0
 11
-377.5062255859375
 21
231.70039795150311
 31
0.0
  0
LINE
  5
1FB
  8
DIMNSIONS
  6
CONTINUOUS
 62
     7
 10
-352.49999999999989
 20
225.0000000000006
 30
0.0
 11
-402.5
 21
225.0000000000006
 31
0.0
  0
TEXT
  5
1FE
  8
DIMNSIONS
  6
CONTINUOUS
 62
     7
 10
-284.99999999999977
 20
237.05555555555611
 30
0.0
 40
28.222222222222221
  1
25
 41
0.75
 11
-284.99999999999977
 21
265.27777777777828
 31
0.0
 73
     3
  0
LINE
  5
1FF
  8
DIMNSIONS
  6
CONTINUOUS
 62
     7
 10
-300.49999999999989
 20
170.0000000000002
 30
0.0
 11
-139.9999999999998
 21
170.0000000000002
 31
0.0
  0
LINE
  5
200
  8
DIMNSIONS
  6
CONTINUOUS
 62
     7
 10
-332.5
 20
159.5000000000002
 30
0.0
 11
-139.9999999999998
 21
159.5000000000002
 31
0.0
  0
LINE
  5
201
  8
DIMNSIONS
  6
CONTINUOUS
 62
     7
 10
-159.9999999999998
 20
159.5000000000002
 30
0.0
 11
-159.9999999999998
 21
170.0000000000002
 31
0.0
  0
LINE
  5
203
  8
DIMNSIONS
  6
CONTINUOUS
 62
     7
 10
-159.9999999999998
 20
170.0000000000002
 30
0.0
 11
-166.70039795150231
 21
195.0062255859377
 31
0.0
  0
LINE
  5
204
  8
DIMNSIONS
  6
CONTINUOUS
 62
     7
 10
-159.9999999999998
 20
170.0000000000002
 30
0.0
 11
-153.29960204849741
 21
195.0062255859377
 31
0.0
  0
LINE
  5
202
  8
DIMNSIONS
  6
CONTINUOUS
 62
     7
 10
-159.9999999999998
 20
170.0000000000002
 30
0.0
 11
-159.9999999999998
 21
270.55555555555588
 31
0.0
  0
LINE
  5
206
  8
DIMNSIONS
  6
CONTINUOUS
 62
     7
 10
-159.9999999999998
 20
159.5000000000002
 30
0.0
 11
-153.29960204849741
 21
134.49377441406261
 31
0.0
  0
LINE
  5
207
  8
DIMNSIONS
  6
CONTINUOUS
 62
     7
 10
-159.9999999999998
 20
159.5000000000002
 30
0.0
 11
-166.70039795150231
 21
134.49377441406261
 31
0.0
  0
LINE
  5
205
  8
DIMNSIONS
  6
CONTINUOUS
 62
     7
 10
-159.9999999999998
 20
159.5000000000002
 30
0.0
 11
-159.9999999999998
 21
109.5000000000002
 31
0.0
  0
TEXT
  5
208
  8
DIMNSIONS
  6
CONTINUOUS
 62
     7
 10
-172.0555555555554
 20
200.0000000000004
 30
0.0
 40
28.222222222222221
  1
10.5
 50
90.0
 41
0.75
 11
-200.2777777777776
 21
200.0000000000004
 31
0.0
 73
     3
  0
LINE
  5
209
  8
DIMNSIONS
  6
CONTINUOUS
 62
     7
 10
-332.5
 20
159.5000000000002
 30
0.0
 11
-189.9999999999998
 21
159.5000000000002
 31
0.0
  0
LINE
  5
20A
  8
DIMNSIONS
  6
CONTINUOUS
 62
     7
 10
-307.5000000000004
 20
125.0
 30
0.0
 11
-189.9999999999998
 21
125.0
 31
0.0
  0
LINE
  5
20B
  8
DIMNSIONS
  6
CONTINUOUS
 62
     7
 10
-209.9999999999998
 20
125.0
 30
0.0
 11
-209.9999999999998
 21
159.5000000000002
 31
0.0
  0
LINE
  5
20D
  8
DIMNSIONS
  6
CONTINUOUS
 62
     7
 10
-209.9999999999998
 20
159.5000000000002
 30
0.0
 11
-216.70039795150231
 21
184.5062255859377
 31
0.0
  0
LINE
  5
20E
  8
DIMNSIONS
  6
CONTINUOUS
 62
     7
 10
-209.9999999999998
 20
159.5000000000002
 30
0.0
 11
-203.29960204849741
 21
184.5062255859377
 31
0.0
  0
LINE
  5
20C
  8
DIMNSIONS
  6
CONTINUOUS
 62
     7
 10
-209.9999999999998
 20
159.5000000000002
 30
0.0
 11
-209.9999999999998
 21
209.5000000000002
 31
0.0
  0
LINE
  5
210
  8
DIMNSIONS
  6
CONTINUOUS
 62
     7
 10
-209.9999999999998
 20
125.0
 30
0.0
 11
-203.29960204849741
 21
99.993774414062514
 31
0.0
  0
LINE
  5
211
  8
DIMNSIONS
  6
CONTINUOUS
 62
     7
 10
-209.9999999999998
 20
125.0
 30
0.0
 11
-216.70039795150231
 21
99.993774414062514
 31
0.0
  0
LINE
  5
20F
  8
DIMNSIONS
  6
CONTINUOUS
 62
     7
 10
-209.9999999999998
 20
125.0
 30
0.0
 11
-209.9999999999998
 21
4.444444444444855
 31
0.0
  0
TEXT
  5
212
  8
DIMNSIONS
  6
CONTINUOUS
 62
     7
 10
-222.0555555555554
 20
4.4444444444448523
 30
0.0
 40
28.222222222222221
  1
34.5
 50
90.0
 41
0.75
 11
-250.2777777777776
 21
4.444444444444855
 31
0.0
 73
     3
  0
LINE
  5
213
  8
DIMNSIONS
  6
CONTINUOUS
 62
     7
 10
-332.5
 20
90.500000000000213
 30
0.0
 11
-239.99999999999989
 21
90.500000000000213
 31
0.0
  0
LINE
  5
214
  8
DIMNSIONS
  6
CONTINUOUS
 62
     7
 10
-307.5000000000004
 20
125.0
 30
0.0
 11
-239.99999999999989
 21
125.0
 31
0.0
  0
LINE
  5
215
  8
DIMNSIONS
  6
CONTINUOUS
 62
     7
 10
-259.99999999999977
 20
125.0
 30
0.0
 11
-259.99999999999977
 21
90.500000000000213
 31
0.0
  0
LINE
  5
217
  8
DIMNSIONS
  6
CONTINUOUS
 62
     7
 10
-259.99999999999977
 20
90.500000000000213
 30
0.0
 11
-253.29960204849741
 21
65.493774414062727
 31
0.0
  0
LINE
  5
218
  8
DIMNSIONS
  6
CONTINUOUS
 62
     7
 10
-259.99999999999977
 20
90.500000000000213
 30
0.0
 11
-266.70039795150228
 21
65.493774414062727
 31
0.0
  0
LINE
  5
216
  8
DIMNSIONS
  6
CONTINUOUS
 62
     7
 10
-259.99999999999977
 20
90.500000000000213
 30
0.0
 11
-259.99999999999977
 21
4.444444444444855
 31
0.0
  0
LINE
  5
21A
  8
DIMNSIONS
  6
CONTINUOUS
 62
     7
 10
-259.99999999999977
 20
125.0
 30
0.0
 11
-266.70039795150228
 21
150.0062255859375
 31
0.0
  0
LINE
  5
21B
  8
DIMNSIONS
  6
CONTINUOUS
 62
     7
 10
-259.99999999999977
 20
125.0
 30
0.0
 11
-253.29960204849741
 21
150.0062255859375
 31
0.0
  0
LINE
  5
219
  8
DIMNSIONS
  6
CONTINUOUS
 62
     7
 10
-259.99999999999977
 20
125.0
 30
0.0
 11
-259.99999999999977
 21
175.0
 31
0.0
  0
TEXT
  5
21C
  8
DIMNSIONS
  6
CONTINUOUS
 62
     7
 10
-272.05555555555537
 20
4.4444444444448523
 30
0.0
 40
28.222222222222221
  1
34.5
 50
90.0
 41
0.75
 11
-300.2777777777776
 21
4.444444444444855
 31
0.0
 73
     3
  0
LINE
  5
21D
  8
DIMNSIONS
  6
CONTINUOUS
 62
     7
 10
-300.49999999999989
 20
80.000000000000213
 30
0.0
 11
-89.999999999999915
 21
80.000000000000213
 31
0.0
  0
LINE
  5
21E
  8
DIMNSIONS
  6
CONTINUOUS
 62
     7
 10
-300.49999999999989
 20
170.0000000000002
 30
0.0
 11
-89.999999999999915
 21
170.0000000000002
 31
0.0
  0
LINE
  5
220
  8
DIMNSIONS
  6
CONTINUOUS
 62
     7
 10
-109.9999999999998
 20
80.000000000000213
 30
0.0
 11
-116.7003979515023
 21
105.0062255859377
 31
0.0
  0
LINE
  5
221
  8
DIMNSIONS
  6
CONTINUOUS
 62
     7
 10
-109.9999999999998
 20
80.000000000000213
 30
0.0
 11
-103.29960204849741
 21
105.0062255859377
 31
0.0
  0
LINE
  5
222
  8
DIMNSIONS
  6
CONTINUOUS
 62
     7
 10
-109.9999999999998
 20
170.0000000000002
 30
0.0
 11
-103.29960204849741
 21
144.99377441406261
 31
0.0
  0
LINE
  5
223
  8
DIMNSIONS
  6
CONTINUOUS
 62
     7
 10
-109.9999999999998
 20
170.0000000000002
 30
0.0
 11
-116.7003979515023
 21
144.99377441406261
 31
0.0
  0
LINE
  5
21F
  8
DIMNSIONS
  6
CONTINUOUS
 62
     7
 10
-109.9999999999998
 20
80.000000000000213
 30
0.0
 11
-109.9999999999998
 21
170.0000000000002
 31
0.0
  0
TEXT
  5
224
  8
DIMNSIONS
  6
CONTINUOUS
 62
     7
 10
-122.0555555555554
 20
107.3611111111113
 30
0.0
 40
28.222222222222221
  1
90
 50
90.0
 41
0.75
 11
-150.2777777777776
 21
107.3611111111113
 31
0.0
 73
     3
  0
LINE
  5
225
  8
DIMNSIONS
  6
CONTINUOUS
 62
     7
 10
-621.58386283807738
 20
-434.86365017698722
 30
0.0
 11
-640.60499050918395
 21
-481.94259321289712
 31
0.0
  0
LINE
  5
226
  8
DIMNSIONS
  6
CONTINUOUS
 62
     7
 10
-492.99613716192232
 20
-434.86365017698722
 30
0.0
 11
-473.97500949081558
 21
-481.9425932128969
 31
0.0
  0
LINE
  5
228
  8
DIMNSIONS
  6
CONTINUOUS
 62
     7
 10
-481.46714135913379
 20
-463.39891612156111
 30
0.0
 11
-502.41125623172121
 21
-478.61570628792532
 31
0.0
  0
LINE
  5
229
  8
DIMNSIONS
  6
CONTINUOUS
 62
     7
 10
-481.46714135913379
 20
-463.39891612156111
 30
0.0
 11
-507.21367198175602
 21
-466.10498553339619
 31
0.0
  0
LINE
  5
22A
  8
DIMNSIONS
  6
CONTINUOUS
 62
     7
 10
-633.11285864086597
 20
-463.39891612156117
 30
0.0
 11
-607.36632801824385
 21
-466.1049855333963
 31
0.0
  0
LINE
  5
22B
  8
DIMNSIONS
  6
CONTINUOUS
 62
     7
 10
-633.11285864086597
 20
-463.39891612156117
 30
0.0
 11
-612.16874376827866
 21
-478.6157062879256
 31
0.0
  0
ARC
  5
227
  8
DIMNSIONS
  6
CONTINUOUS
 62
     7
 10
-557.29000000000019
 20
-275.73075551110969
 30
0.0
 40
202.40663131276841
 50
248.0000000000002
 51
291.99999999999989
  0
TEXT
  5
22C
  8
DIMNSIONS
  6
CONTINUOUS
 62
     7
 10
-592.56777777777791
 20
-511.35960904610039
 30
0.0
 40
28.222222222222221
  1
44°
 41
0.75
 11
-592.56777777777791
 21
-483.1373868238781
 31
0.0
 73
     3
  0
LINE
  5
22D
  8
DIMNSIONS
  6
CONTINUOUS
 62
     7
 10
-464.57999999999993
 20
-334.84689591111061
 30
0.0
 11
-464.57999999999993
 21
-129.35953929776969
 31
0.0
  0
LINE
  5
22E
  8
DIMNSIONS
  6
CONTINUOUS
 62
     7
 10
-510.93022933962732
 20
-246.83335914928219
 30
0.0
 11
-552.03984716049001
 21
-146.597753607398
 31
0.0
  0
LINE
  5
230
  8
DIMNSIONS
  6
CONTINUOUS
 62
     7
 10
-544.45072396991009
 20
-165.10194797511369
 30
0.0
 11
-523.77536859411725
 21
-149.52195019437039
 31
0.0
  0
LINE
  5
231
  8
DIMNSIONS
  6
CONTINUOUS
 62
     7
 10
-544.45072396991009
 20
-165.10194797511369
 30
0.0
 11
-518.75534209183058
 21
-161.9469517939813
 31
0.0
  0
LINE
  5
232
  8
DIMNSIONS
  6
CONTINUOUS
 62
     7
 10
-464.57999999999993
 20
-149.35953929776969
 30
0.0
 11
-489.58622558593743
 21
-156.0599372492722
 31
0.0
  0
LINE
  5
233
  8
DIMNSIONS
  6
CONTINUOUS
 62
     7
 10
-464.57999999999993
 20
-149.35953929776969
 30
0.0
 11
-489.58622558593743
 21
-142.65914134626729
 31
0.0
  0
ARC
  5
22F
  8
DIMNSIONS
  6
CONTINUOUS
 62
     7
 10
-464.57999999999993
 20
-359.84689591111078
 30
0.0
 40
210.48735661334089
 50
90.0
 51
112.2999999999998
  0
TEXT
  5
234
  8
DIMNSIONS
  6
CONTINUOUS
 62
     7
 10
-551.91756434865806
 20
-137.92679888349539
 30
0.0
 40
28.222222222222221
  1
22.3°
 50
8.6625926720117441
 41
0.75
 11
-556.16826617773972
 21
-110.0265235959514
 31
0.0
 73
     3
  0
LINE
  5
235
  8
DIMNSIONS
  6
CONTINUOUS
 62
     7
 10
-612.28999999999985
 20
-197.5807555111106
 30
0.0
 11
-719.99999999999989
 21
-197.5807555111106
 31
0.0
  0
LINE
  5
236
  8
DIMNSIONS
  6
CONTINUOUS
 62
     7
 10
-619.67377237112976
 20
-257.58075551111068
 30
0.0
 11
-719.99999999999989
 21
-257.58075551111068
 31
0.0
  0
LINE
  5
238
  8
DIMNSIONS
  6
CONTINUOUS
 62
     7
 10
-699.99999999999989
 20
-197.5807555111106
 30
0.0
 11
-693.29960204849738
 21
-222.5869810970481
 31
0.0
  0
LINE
  5
239
  8
DIMNSIONS
  6
CONTINUOUS
 62
     7
 10
-699.99999999999989
 20
-197.5807555111106
 30
0.0
 11
-706.7003979515024
 21
-222.5869810970481
 31
0.0
  0
LINE
  5
23A
  8
DIMNSIONS
  6
CONTINUOUS
 62
     7
 10
-699.99999999999989
 20
-257.58075551111068
 30
0.0
 11
-706.7003979515024
 21
-232.5745299251731
 31
0.0
  0
LINE
  5
23B
  8
DIMNSIONS
  6
CONTINUOUS
 62
     7
 10
-699.99999999999989
 20
-257.58075551111068
 30
0.0
 11
-693.29960204849738
 21
-232.5745299251731
 31
0.0
  0
LINE
  5
237
  8
DIMNSIONS
  6
CONTINUOUS
 62
     7
 10
-699.99999999999989
 20
-197.5807555111106
 30
0.0
 11
-699.99999999999989
 21
-257.58075551111068
 31
0.0
  0
TEXT
  5
23C
  8
DIMNSIONS
  6
CONTINUOUS
 62
     7
 10
-712.05555555555543
 20
-245.21964439999951
 30
0.0
 40
28.222222222222221
  1
60
 50
90.0
 41
0.75
 11
-740.27777777777771
 21
-245.21964439999951
 31
0.0
 73
     3
  0
LINE
  5
23D
  8
DIMNSIONS
  6
CONTINUOUS
 62
     7
 10
-619.67377237112976
 20
-257.58075551111068
 30
0.0
 11
-719.99999999999989
 21
-257.58075551111068
 31
0.0
  0
LINE
  5
23E
  8
DIMNSIONS
  6
CONTINUOUS
 62
     7
 10
-577.29000000000042
 20
-402.36111111111109
 30
0.0
 11
-719.99999999999989
 21
-402.36111111111109
 31
0.0
  0
LINE
  5
240
  8
DIMNSIONS
  6
CONTINUOUS
 62
     7
 10
-699.99999999999989
 20
-257.58075551111068
 30
0.0
 11
-693.29960204849738
 21
-282.58698109704812
 31
0.0
  0
LINE
  5
241
  8
DIMNSIONS
  6
CONTINUOUS
 62
     7
 10
-699.99999999999989
 20
-257.58075551111068
 30
0.0
 11
-706.7003979515024
 21
-282.58698109704812
 31
0.0
  0
LINE
  5
242
  8
DIMNSIONS
  6
CONTINUOUS
 62
     7
 10
-699.99999999999989
 20
-402.36111111111109
 30
0.0
 11
-706.7003979515024
 21
-377.35488552517359
 31
0.0
  0
LINE
  5
243
  8
DIMNSIONS
  6
CONTINUOUS
 62
     7
 10
-699.99999999999989
 20
-402.36111111111109
 30
0.0
 11
-693.29960204849738
 21
-377.35488552517359
 31
0.0
  0
LINE
  5
23F
  8
DIMNSIONS
  6
CONTINUOUS
 62
     7
 10
-699.99999999999989
 20
-257.58075551111068
 30
0.0
 11
-699.99999999999989
 21
-402.36111111111109
 31
0.0
  0
TEXT
  5
244
  8
DIMNSIONS
  6
CONTINUOUS
 62
     7
 10
-712.05555555555543
 20
-356.42926664444423
 30
0.0
 40
28.222222222222221
  1
145
 50
90.0
 41
0.75
 11
-740.27777777777771
 21
-356.42926664444423
 31
0.0
 73
     3
  0
LINE
  5
245
  8
DIMNSIONS
  6
CONTINUOUS
 62
     7
 10
-668.48000000000002
 20
-614.73051880000003
 30
0.0
 11
-719.99999999999989
 21
-614.73051880000003
 31
0.0
  0
LINE
  5
246
  8
DIMNSIONS
  6
CONTINUOUS
 62
     7
 10
-668.48000000000002
 20
-850.0
 30
0.0
 11
-719.99999999999989
 21
-850.0
 31
0.0
  0
LINE
  5
248
  8
DIMNSIONS
  6
CONTINUOUS
 62
     7
 10
-699.99999999999989
 20
-614.73051880000003
 30
0.0
 11
-693.29960204849738
 21
-639.73674438593753
 31
0.0
  0
LINE
  5
249
  8
DIMNSIONS
  6
CONTINUOUS
 62
     7
 10
-699.99999999999989
 20
-614.73051880000003
 30
0.0
 11
-706.7003979515024
 21
-639.73674438593753
 31
0.0
  0
LINE
  5
24A
  8
DIMNSIONS
  6
CONTINUOUS
 62
     7
 10
-699.99999999999989
 20
-850.0
 30
0.0
 11
-706.7003979515024
 21
-824.9937744140625
 31
0.0
  0
LINE
  5
24B
  8
DIMNSIONS
  6
CONTINUOUS
 62
     7
 10
-699.99999999999989
 20
-850.0
 30
0.0
 11
-693.29960204849738
 21
-824.9937744140625
 31
0.0
  0
LINE
  5
247
  8
DIMNSIONS
  6
CONTINUOUS
 62
     7
 10
-699.99999999999989
 20
-614.73051880000003
 30
0.0
 11
-699.99999999999989
 21
-850.0
 31
0.0
  0
TEXT
  5
24C
  8
DIMNSIONS
  6
CONTINUOUS
 62
     7
 10
-712.05555555555543
 20
-758.82359273333327
 30
0.0
 40
28.222222222222221
  1
235
 50
90.0
 41
0.75
 11
-740.27777777777771
 21
-758.82359273333327
 31
0.0
 73
     3
  0
LINE
  5
24D
  8
DIMNSIONS
  6
CONTINUOUS
 62
     7
 10
-650.0
 20
-868.48000000000002
 30
0.0
 11
-650.0
 21
-945.0
 31
0.0
  0
LINE
  5
24E
  8
DIMNSIONS
  6
CONTINUOUS
 62
     7
 10
-464.58000000000033
 20
-868.48000000000002
 30
0.0
 11
-464.58000000000033
 21
-945.0
 31
0.0
  0
LINE
  5
250
  8
DIMNSIONS
  6
CONTINUOUS
 62
     7
 10
-650.0
 20
-925.0
 30
0.0
 11
-624.99377441406239
 21
-918.2996020484976
 31
0.0
  0
LINE
  5
251
  8
DIMNSIONS
  6
CONTINUOUS
 62
     7
 10
-650.0
 20
-925.0
 30
0.0
 11
-624.99377441406239
 21
-931.70039795150228
 31
0.0
  0
LINE
  5
252
  8
DIMNSIONS
  6
CONTINUOUS
 62
     7
 10
-464.58000000000033
 20
-925.0
 30
0.0
 11
-489.58622558593783
 21
-931.70039795150228
 31
0.0
  0
LINE
  5
253
  8
DIMNSIONS
  6
CONTINUOUS
 62
     7
 10
-464.58000000000033
 20
-925.0
 30
0.0
 11
-489.58622558593783
 21
-918.2996020484976
 31
0.0
  0
LINE
  5
24F
  8
DIMNSIONS
  6
CONTINUOUS
 62
     7
 10
-650.0
 20
-925.0
 30
0.0
 11
-464.58000000000033
 21
-925.0
 31
0.0
  0
TEXT
  5
254
  8
DIMNSIONS
  6
CONTINUOUS
 62
     7
 10
-583.74833333333345
 20
-912.94444444444434
 30
0.0
 40
28.222222222222221
  1
185
 41
0.75
 11
-583.74833333333345
 21
-884.72222222222206
 31
0.0
 73
     3
  0
LINE
  5
255
  8
DIMNSIONS
  6
CONTINUOUS
 62
     7
 10
-99.999999999999915
 20
-865.43323239999984
 30
0.0
 11
-99.999999999999915
 21
-945.0
 31
0.0
  0
LINE
  5
256
  8
DIMNSIONS
  6
CONTINUOUS
 62
     7
 10
44.780355599999993
 20
-856.2845491756641
 30
0.0
 11
44.780355599999993
 21
-945.0
 31
0.0
  0
LINE
  5
258
  8
DIMNSIONS
  6
CONTINUOUS
 62
     7
 10
-99.999999999999915
 20
-925.0
 30
0.0
 11
-74.993774414062401
 21
-918.2996020484976
 31
0.0
  0
LINE
  5
259
  8
DIMNSIONS
  6
CONTINUOUS
 62
     7
 10
-99.999999999999915
 20
-925.0
 30
0.0
 11
-74.993774414062401
 21
-931.70039795150228
 31
0.0
  0
LINE
  5
25A
  8
DIMNSIONS
  6
CONTINUOUS
 62
     7
 10
44.780355599999993
 20
-925.0
 30
0.0
 11
19.774130014062489
 21
-931.70039795150228
 31
0.0
  0
LINE
  5
25B
  8
DIMNSIONS
  6
CONTINUOUS
 62
     7
 10
44.780355599999993
 20
-925.0
 30
0.0
 11
19.774130014062489
 21
-918.2996020484976
 31
0.0
  0
LINE
  5
257
  8
DIMNSIONS
  6
CONTINUOUS
 62
     7
 10
-99.999999999999915
 20
-925.0
 30
0.0
 11
44.780355599999993
 21
-925.0
 31
0.0
  0
TEXT
  5
25C
  8
DIMNSIONS
  6
CONTINUOUS
 62
     7
 10
-27.60982219999995
 20
-912.94444444444434
 30
0.0
 40
28.222222222222221
  1
145
 41
0.75
 11
-27.60982219999995
 21
-884.72222222222206
 31
0.0
 73
     3
  0
LINE
  5
25D
  8
DIMNSIONS
  6
CONTINUOUS
 62
     7
 10
-159.83886194708651
 20
-803.20317436767368
 30
0.0
 11
-207.77747002667741
 21
-819.24320825454902
 31
0.0
  0
LINE
  5
25E
  8
DIMNSIONS
  6
CONTINUOUS
 62
     7
 10
-159.83886194708651
 20
-678.41971952273536
 30
0.0
 11
-207.77747002667741
 21
-662.37968563585991
 31
0.0
  0
LINE
  5
260
  8
DIMNSIONS
  6
CONTINUOUS
 62
     7
 10
-188.81099692255339
 20
-812.89711512644737
 30
0.0
 11
-202.91080272732879
 21
-791.1853181710843
 31
0.0
  0
LINE
  5
261
  8
DIMNSIONS
  6
CONTINUOUS
 62
     7
 10
-188.81099692255339
 20
-812.89711512644737
 30
0.0
 11
-190.16588846023461
 21
-787.04424449890553
 31
0.0
  0
LINE
  5
262
  8
DIMNSIONS
  6
CONTINUOUS
 62
     7
 10
-188.81099692255339
 20
-668.7257787639619
 30
0.0
 11
-190.16588846023461
 21
-694.57864939150363
 31
0.0
  0
LINE
  5
263
  8
DIMNSIONS
  6
CONTINUOUS
 62
     7
 10
-188.81099692255339
 20
-668.7257787639619
 30
0.0
 11
-202.91080272732879
 21
-690.43757571932497
 31
0.0
  0
ARC
  5
25F
  8
DIMNSIONS
  6
CONTINUOUS
 62
     7
 10
26.630355599999831
 20
-740.81144694520435
 30
0.0
 40
227.18124908073571
 50
161.49999999999989
 51
198.50000000000011
  0
TEXT
  5
264
  8
DIMNSIONS
  6
CONTINUOUS
 62
     7
 10
-214.3584537024451
 20
-760.89039334463303
 30
0.0
 40
28.222222222222221
  1
37°
 50
86.374461184883799
 41
0.75
 11
-242.5241931336719
 21
-759.10575067655384
 31
0.0
 73
     3
  0
LINE
  5
265
  8
DIMNSIONS
  6
CONTINUOUS
 62
     7
 10
-76.138564999999659
 20
-849.99999999999272
 30
0.0
 11
170.0
 21
-849.99999999999272
 31
0.0
  0
LINE
  5
266
  8
DIMNSIONS
  6
CONTINUOUS
 62
     7
 10
124.78035559999999
 20
-740.81144694520435
 30
0.0
 11
170.0
 21
-740.81144694520435
 31
0.0
  0
LINE
  5
268
  8
DIMNSIONS
  6
CONTINUOUS
 62
     7
 10
150.0
 20
-849.99999999999272
 30
0.0
 11
143.29960204849749
 21
-824.99377441405488
 31
0.0
  0
LINE
  5
269
  8
DIMNSIONS
  6
CONTINUOUS
 62
     7
 10
150.0
 20
-849.99999999999272
 30
0.0
 11
156.70039795150231
 21
-824.99377441405488
 31
0.0
  0
LINE
  5
26A
  8
DIMNSIONS
  6
CONTINUOUS
 62
     7
 10
150.0
 20
-740.81144694520435
 30
0.0
 11
156.70039795150231
 21
-765.81767253114185
 31
0.0
  0
LINE
  5
26B
  8
DIMNSIONS
  6
CONTINUOUS
 62
     7
 10
150.0
 20
-740.81144694520435
 30
0.0
 11
143.29960204849749
 21
-765.81767253114185
 31
0.0
  0
LINE
  5
267
  8
DIMNSIONS
  6
CONTINUOUS
 62
     7
 10
150.0
 20
-849.99999999999272
 30
0.0
 11
150.0
 21
-740.81144694520435
 31
0.0
  0
TEXT
  5
26C
  8
DIMNSIONS
  6
CONTINUOUS
 62
     7
 10
137.9444444444444
 20
-821.86405680593191
 30
0.0
 40
28.222222222222221
  1
109
 50
90.0
 41
0.75
 11
109.7222222222222
 21
-821.86405680593191
 31
0.0
 73
     3
  0
LINE
  5
26D
  8
DIMNSIONS
  6
CONTINUOUS
 62
     7
 10
-71.00127800000007
 20
-614.73648779999985
 30
0.0
 11
95.307731571338408
 21
-614.73648779999985
 31
0.0
  0
LINE
  5
26E
  8
DIMNSIONS
  6
CONTINUOUS
 62
     7
 10
63.316725951571932
 20
-628.67524495053181
 30
0.0
 11
94.579718322313909
 21
-631.41044905582044
 31
0.0
  0
LINE
  5
270
  8
DIMNSIONS
  6
CONTINUOUS
 62
     7
 10
74.65582694371713
 20
-629.66730467457239
 30
0.0
 11
78.7056570815447
 21
-655.23692584145795
 31
0.0
  0
LINE
  5
271
  8
DIMNSIONS
  6
CONTINUOUS
 62
     7
 10
74.65582694371713
 20
-629.66730467457239
 30
0.0
 11
65.378272140644938
 21
-653.8361612391534
 31
0.0
  0
ARC
  5
26F
  8
DIMNSIONS
  6
CONTINUOUS
 62
     7
 10
-96.001278000000426
 20
-614.73648779999985
 30
0.0
 40
171.30900957133881
 50
338.27698275401798
 51
354.9999150902832
  0
LINE
  5
273
  8
DIMNSIONS
  6
CONTINUOUS
 62
     7
 10
75.307731571338394
 20
-614.73648779999985
 30
0.0
 11
68.60733361983597
 21
-589.73026221406235
 31
0.0
  0
LINE
  5
274
  8
DIMNSIONS
  6
CONTINUOUS
 62
     7
 10
75.307731571338394
 20
-614.73648779999985
 30
0.0
 11
82.008129522840804
 21
-589.73026221406235
 31
0.0
  0
ARC
  5
272
  8
DIMNSIONS
  6
CONTINUOUS
 62
     7
 10
-96.001278000000426
 20
-614.73648779999985
 30
0.0
 40
171.30900957133881
 50
0.0
 51
18.8994789075158
  0
TEXT
  5
275
  8
DIMNSIONS
  6
CONTINUOUS
 62
     7
 10
25.000000000000231
 20
-586.54494963786658
 30
0.0
 40
28.222222222222221
  1
5°
 41
0.75
 11
25.000000000000231
 21
-558.32272741564441
 31
0.0
 73
     3
  0
LINE
  5
277
  8
DIMNSIONS
  6
CONTINUOUS
 62
     7
 10
-355.48828939673791
 20
88.492482507832733
 30
0.0
 11
-372.8109765365445
 21
69.253689379892734
 31
0.0
  0
LINE
  5
278
  8
DIMNSIONS
  6
CONTINUOUS
 62
     7
 10
-355.48828939673791
 20
88.492482507832733
 30
0.0
 11
-380.10957308559051
 21
80.492542490786548
 31
0.0
  0
LINE
  5
276
  8
DIMNSIONS
  6
CONTINUOUS
 62
     7
 10
-355.48828939673791
 20
88.492482507832733
 30
0.0
 11
-450.0
 21
25.000000000000028
 31
0.0
  0
LINE
  5
279
  8
DIMNSIONS
  6
CONTINUOUS
 62
     7
 10
-450.0
 20
25.000000000000028
 30
0.0
 11
-301.8055555555556
 21
25.000000000000028
 31
0.0
  0
TEXT
  5
27A
  8
DIMNSIONS
  6
CONTINUOUS
 62
     7
 10
-390.0
 20
37.055555555555571
 30
0.0
 40
28.222222222222221
  1
4-φ7
 41
0.75
 11
-390.0
 21
65.2777777777778
 31
0.0
 73
     3
  0
TEXT
  5
27B
  8
DATA
  6
CONTINUOUS
 62
     7
 10
599.99999999999989
 20
-942.49976499999991
 30
0.0
 40
25.399999999999999
  1
JBL
 41
0.75
 11
599.99999999999989
 21
-917.09976500000005
 31
0.0
 73
     3
  0
TEXT
  5
27C
  8
DATA
  6
CONTINUOUS
 62
     7
 10
-699.99999999999989
 20
-1084.5636649999999
 30
0.0
 40
16.93333333333333
  1
仕様および外観は予告なく変更されることがありますので、ご了承ください。
 41
0.75
 11
-699.99999999999989
 21
-1067.6303316666661
 31
0.0
 73
     3
  0
LINE
  5
27D
  8
DATA
  6
CONTINUOUS
 62
     7
 10
-639.98764360000018
 20
-847.4655626
 30
0.0
 11
-474.59235640000003
 21
-847.4655626
 31
0.0
  0
LINE
  5
27E
  8
DATA
  6
CONTINUOUS
 62
     7
 10
-648.4799999999999
 20
-850.0
 30
0.0
 11
-466.09999999999991
 21
-850.00000000000011
 31
0.0
  0
LINE
  5
27F
  8
DATA
  6
CONTINUOUS
 62
     7
 10
-473.5783563999999
 20
-843.96800800000005
 30
0.0
 11
-641.00164360000019
 21
-843.96800800000005
 31
0.0
  0
LINE
  5
280
  8
DATA
  6
CONTINUOUS
 62
     7
 10
-474.59235640000003
 20
-617.26495620000014
 30
0.0
 11
-639.98764360000018
 21
-617.26495620000014
 31
0.0
  0
LINE
  5
281
  8
DATA
  6
CONTINUOUS
 62
     7
 10
-466.09999999999991
 20
-614.73051880000003
 30
0.0
 11
-648.4799999999999
 21
-614.73051880000003
 31
0.0
  0
LINE
  5
282
  8
DATA
  6
CONTINUOUS
 62
     7
 10
-473.5783563999999
 20
-620.7876060000001
 30
0.0
 11
-641.00164360000019
 21
-620.7876060000001
 31
0.0
  0
ARC
  5
283
  8
DATA
  6
CONTINUOUS
 62
     7
 10
-471.40753728562629
 20
-767.50006097979701
 30
0.0
 40
34.773749197655981
 50
218.822000257377
 51
268.09688540728951
  0
ARC
  5
284
  8
DATA
  6
CONTINUOUS
 62
     7
 10
-465.48733089735231
 20
-669.73446143718593
 30
0.0
 40
33.075226388828753
 50
129.1956291684817
 51
148.10110125914909
  0
LINE
  5
285
  8
DATA
  6
CONTINUOUS
 62
     7
 10
-712.5
 20
-50.0
 30
0.0
 11
-287.5
 21
-50.0
 31
0.0
  0
ARC
  5
286
  8
DATA
  6
CONTINUOUS
 62
     7
 10
-557.28999999999985
 20
87.096888888889069
 30
0.0
 40
489.45800000000003
 50
260.03159839434448
 51
279.9684016056554
  0
ARC
  5
287
  8
DATA
  6
CONTINUOUS
 62
     7
 10
-557.28999999999985
 20
89.383269888888947
 30
0.0
 40
489.45800000000003
 50
260.53640516317319
 51
279.46359483682681
  0
LINE
  5
288
  8
DATA
  6
CONTINUOUS
 62
     7
 10
-503.34110614904739
 20
-265.33755351699801
 30
0.0
 11
-464.57999999999993
 21
-359.84689591111061
 31
0.0
  0
LINE
  5
289
  8
DATA
  6
CONTINUOUS
 62
     7
 10
-642.01764360000016
 20
-619.29495620000012
 30
0.0
 11
-642.01764360000016
 21
-845.4355625999998
 31
0.0
  0
LINE
  5
28A
  8
DATA
  6
CONTINUOUS
 62
     7
 10
-650.0
 20
-616.2505187999999
 30
0.0
 11
-650.0
 21
-848.4799999999999
 31
0.0
  0
LINE
  5
28B
  8
DATA
  6
CONTINUOUS
 62
     7
 10
-641.00164360000019
 20
-620.7876060000001
 30
0.0
 11
-641.00164360000019
 21
-843.96800800000005
 31
0.0
  0
LINE
  5
28C
  8
DATA
  6
CONTINUOUS
 62
     7
 10
-595.38999999999987
 20
-698.66725719999988
 30
0.0
 11
-595.38999999999987
 21
-622.46725719999995
 31
0.0
  0
LINE
  5
28D
  8
DATA
  6
CONTINUOUS
 62
     7
 10
-640.09814019999999
 20
-633.4876059999998
 30
0.0
 11
-640.09814019999999
 21
-831.26800800000012
 31
0.0
  0
ARC
  5
28E
  8
DATA
  6
CONTINUOUS
 62
     7
 10
-637.48468018228527
 20
18.482797995652099
 30
0.0
 40
699.64742806452728
 50
275.88931337317791
 51
277.0700505990024
  0
LINE
  5
28F
  8
DATA
  6
CONTINUOUS
 62
     7
 10
-569.68519999999978
 20
-676.85744220000015
 30
0.0
 11
-569.68519999999978
 21
-644.27707220000002
 31
0.0
  0
ARC
  5
290
  8
DATA
  6
CONTINUOUS
 62
     7
 10
-602.75599999999974
 20
-673.20375720000015
 30
0.0
 40
4.8260000000000209
 50
180.0
 51
0.0
  0
ARC
  5
291
  8
DATA
  6
CONTINUOUS
 62
     7
 10
-602.75599999999974
 20
-673.20375720000015
 30
0.0
 40
7.2644000000000224
 50
180.0
 51
0.0
  0
ARC
  5
292
  8
DATA
  6
CONTINUOUS
 62
     7
 10
-557.28999999999985
 20
-772.94241980000015
 30
0.0
 40
61.023500000000169
 50
116.359573622293
 51
344.45167800000002
  0
ARC
  5
293
  8
DATA
  6
CONTINUOUS
 62
     7
 10
-557.28999999999985
 20
-772.94241980000015
 30
0.0
 40
56.999987600000068
 50
115.6909940344825
 51
347.46332230907882
  0
ARC
  5
294
  8
DATA
  6
CONTINUOUS
 62
     7
 10
-557.28999999999985
 20
-772.94241980000015
 30
0.0
 40
50.999999599999981
 50
112.5654650361995
 51
353.44750951038827
  0
CIRCLE
  5
295
  8
DATA
  6
CONTINUOUS
 62
     7
 10
-557.28999999999985
 20
-772.94241980000015
 30
0.0
 40
27.999994799999961
  0
ARC
  5
296
  8
DATA
  6
CONTINUOUS
 62
     7
 10
-557.28999999999985
 20
-772.94241980000015
 30
0.0
 40
67.2056567999999
 50
253.58165299999979
 51
286.41834499999987
  0
ARC
  5
297
  8
DATA
  6
CONTINUOUS
 62
     7
 10
-568.51201843906392
 20
-782.51311023469395
 30
0.0
 40
53.47913780113327
 50
29.305271113119389
 51
82.907909381963734
  0
LINE
  5
298
  8
DATA
  6
CONTINUOUS
 62
     7
 10
-621.75525080000034
 20
-791.9380130000003
 30
0.0
 11
-612.32349420000025
 21
-823.94648339999992
 31
0.0
  0
ARC
  5
299
  8
DATA
  6
CONTINUOUS
 62
     7
 10
-636.29014020000011
 20
-840.16000799999995
 30
0.0
 40
0.7599999999999909
 50
180.0
 51
270.0
  0
LINE
  5
29A
  8
DATA
  6
CONTINUOUS
 62
     7
 10
-637.05014019999999
 20
-840.16000799999995
 30
0.0
 11
-637.05014019999999
 21
-832.7880080000001
 31
0.0
  0
LINE
  5
29B
  8
DATA
  6
CONTINUOUS
 62
     7
 10
-628.9181401999997
 20
-840.92000800000005
 30
0.0
 11
-636.29014020000011
 21
-840.92000800000005
 31
0.0
  0
ARC
  5
29C
  8
DATA
  6
CONTINUOUS
 62
     7
 10
-628.9181401999997
 20
-842.44000799999992
 30
0.0
 40
1.5199999999999809
 50
0.0
 51
90.0
  0
LINE
  5
29D
  8
DATA
  6
CONTINUOUS
 62
     7
 10
-627.39814019999994
 20
-843.96800800000005
 30
0.0
 11
-627.39814019999994
 21
-842.44000799999992
 31
0.0
  0
ARC
  5
29E
  8
DATA
  6
CONTINUOUS
 62
     7
 10
-638.57014019999986
 20
-832.7880080000001
 30
0.0
 40
1.5199999999999809
 50
0.0
 51
90.0
  0
LINE
  5
29F
  8
DATA
  6
CONTINUOUS
 62
     7
 10
-638.57014019999986
 20
-831.26800800000012
 30
0.0
 11
-640.09814019999999
 21
-831.26800800000012
 31
0.0
  0
ARC
  5
2A0
  8
DATA
  6
CONTINUOUS
 62
     7
 10
-639.98764360000018
 20
-845.4355625999998
 30
0.0
 40
2.0299999999999718
 50
180.0
 51
270.0
  0
ARC
  5
2A1
  8
DATA
  6
CONTINUOUS
 62
     7
 10
-648.4799999999999
 20
-848.4799999999999
 30
0.0
 40
1.5199999999999809
 50
180.0
 51
270.0
  0
LINE
  5
2A2
  8
DATA
  6
CONTINUOUS
 62
     7
 10
-631.53039000000012
 20
-821.27780700000017
 30
0.0
 11
-626.65358999999989
 21
-821.27780700000017
 31
0.0
  0
LINE
  5
2A3
  8
DATA
  6
CONTINUOUS
 62
     7
 10
-629.09198999999978
 20
-823.71620700000005
 30
0.0
 11
-629.09198999999978
 21
-818.83940700000039
 31
0.0
  0
ARC
  5
2A4
  8
DATA
  6
CONTINUOUS
 62
     7
 10
-606.61070400000017
 20
-822.26312380000013
 30
0.0
 40
5.9556649999998701
 50
196.41834500000081
 51
253.58165500000129
  0
CIRCLE
  5
2A5
  8
DATA
  6
CONTINUOUS
 62
     7
 10
-629.09198999999978
 20
-821.27780700000017
 30
0.0
 40
4.7999903999998406
  0
LINE
  5
2A6
  8
DATA
  6
CONTINUOUS
 62
     7
 10
-576.28559319999977
 20
-837.40767059999996
 30
0.0
 11
-608.29406359999984
 21
-827.97593940000002
 31
0.0
  0
TEXT
  5
2A7
  8
DATA
  6
CONTINUOUS
 62
     7
 10
-569.79000000000042
 20
-690.23051879999969
 30
0.0
 40
2.578125
  1
CONTROL
 41
0.75
 11
-569.79000000000042
 21
-687.65239379999969
 31
0.0
 73
     3
  0
LINE
  5
2A8
  8
DATA
  6
CONTINUOUS
 62
     7
 10
-570.78999999999985
 20
-691.23051879999957
 30
0.0
 11
-543.79000000000042
 21
-691.23051879999957
 31
0.0
  0
LINE
  5
2A9
  8
DATA
  6
CONTINUOUS
 62
     7
 10
-543.79000000000042
 20
-713.73051880000003
 30
0.0
 11
-570.78999999999985
 21
-713.73051880000003
 31
0.0
  0
LINE
  5
2AA
  8
DATA
  6
CONTINUOUS
 62
     7
 10
-570.78999999999985
 20
-686.73051880000003
 30
0.0
 11
-543.79000000000042
 21
-686.73051880000003
 31
0.0
  0
LINE
  5
2AB
  8
DATA
  6
CONTINUOUS
 62
     7
 10
-570.78999999999985
 20
-713.73051880000003
 30
0.0
 11
-570.78999999999985
 21
-686.73051880000003
 31
0.0
  0
ARC
  5
2AC
  8
DATA
  6
CONTINUOUS
 62
     7
 10
-620.41615120112829
 20
-642.34250208626122
 30
0.0
 40
61.634294695115827
 50
293.95648030189881
 51
310.14988383627423
  0
ARC
  5
2AD
  8
DATA
  6
CONTINUOUS
 62
     7
 10
-599.54843436798421
 20
-692.38861690879503
 30
0.0
 40
19.093709729417839
 50
322.87920856338781
 51
7.7830917055526347
  0
LINE
  5
2AE
  8
DATA
  6
CONTINUOUS
 62
     7
 10
-608.29406359999984
 20
-717.90892559999998
 30
0.0
 11
-586.71047227433053
 21
-711.54903169024635
 31
0.0
  0
LINE
  5
2AF
  8
DATA
  6
CONTINUOUS
 62
     7
 10
-595.38999999999987
 20
-698.66725719999988
 30
0.0
 11
-581.51656182726038
 21
-698.66725719999988
 31
0.0
  0
ARC
  5
2B0
  8
DATA
  6
CONTINUOUS
 62
     7
 10
-555.97341778668397
 20
-650.72197065383955
 30
0.0
 40
78.944644020083786
 50
258.93436274173428
 51
265.6878763714613
  0
ARC
  5
2B1
  8
DATA
  6
CONTINUOUS
 62
     7
 10
-566.01003639076123
 20
-707.55668514890567
 30
0.0
 40
21.266597692532709
 50
201.7279557646394
 51
256.08150683439408
  0
ARC
  5
2B2
  8
DATA
  6
CONTINUOUS
 62
     7
 10
-575.47435922242448
 20
-710.86869391718551
 30
0.0
 40
11.25669116573215
 50
141.82693254636251
 51
203.90185482807129
  0
ARC
  5
2B3
  8
DATA
  6
CONTINUOUS
 62
     7
 10
-596.91639439649316
 20
-715.55920976926893
 30
0.0
 40
8.2268934884488782
 50
10.17122821838343
 51
23.13329080587361
  0
ARC
  5
2B4
  8
DATA
  6
CONTINUOUS
 62
     7
 10
-593.14460387890233
 20
-714.96748160772756
 30
0.0
 40
4.4106783045105793
 50
326.89804736421632
 51
11.257713267955859
  0
ARC
  5
2B5
  8
DATA
  6
CONTINUOUS
 62
     7
 10
-599.53360401794237
 20
-709.86104457203999
 30
0.0
 40
12.57626418678802
 50
298.70562960638
 51
323.30368599721442
  0
ARC
  5
2B6
  8
DATA
  6
CONTINUOUS
 62
     7
 10
-569.50287673571029
 20
-749.64772255254593
 30
0.0
 40
37.449183207222163
 50
129.83713065213851
 51
146.78898546334349
  0
ARC
  5
2B7
  8
DATA
  6
CONTINUOUS
 62
     7
 10
-614.72491606043468
 20
-718.58045768374632
 30
0.0
 40
17.445490568528601
 50
295.47154470467723
 51
322.7673470296906
  0
ARC
  5
2B8
  8
DATA
  6
CONTINUOUS
 62
     7
 10
-588.11624519342479
 20
-773.922130971564
 30
0.0
 40
43.960874783258987
 50
115.76073894775379
 51
118.548343746797
  0
ARC
  5
2B9
  8
DATA
  6
CONTINUOUS
 62
     7
 10
-606.17196767745838
 20
-741.3436864866469
 30
0.0
 40
6.7209848660269298
 50
116.06544534991301
 51
147.68419225289381
  0
ARC
  5
2BA
  8
DATA
  6
CONTINUOUS
 62
     7
 10
-584.55062876647389
 20
-751.42124765542974
 30
0.0
 40
30.532700406115168
 50
153.40166135632231
 51
162.06703323247109
  0
ARC
  5
2BB
  8
DATA
  6
CONTINUOUS
 62
     7
 10
-617.11311736940252
 20
-741.06704905786012
 30
0.0
 40
3.6401250131793921
 50
289.85381636385142
 51
344.82195700858063
  0
ARC
  5
2BC
  8
DATA
  6
CONTINUOUS
 62
     7
 10
-616.98197094851093
 20
-739.00842354474867
 30
0.0
 40
5.5926631136952514
 50
249.92876554684599
 51
281.39673336954689
  0
LINE
  5
2BD
  8
DATA
  6
CONTINUOUS
 62
     7
 10
-606.99622520000003
 20
-725.26819460000002
 30
0.0
 11
-602.93222520000006
 21
-725.26819460000002
 31
0.0
  0
LINE
  5
2BE
  8
DATA
  6
CONTINUOUS
 62
     7
 10
-604.96422519999987
 20
-727.30019459999983
 30
0.0
 11
-604.96422519999987
 21
-723.23619460000009
 31
0.0
  0
LINE
  5
2BF
  8
DATA
  6
CONTINUOUS
 62
     7
 10
-631.53039000000012
 20
-732.3778070000003
 30
0.0
 11
-626.65358999999989
 21
-732.3778070000003
 31
0.0
  0
LINE
  5
2C0
  8
DATA
  6
CONTINUOUS
 62
     7
 10
-629.09198999999978
 20
-734.8162070000003
 30
0.0
 11
-629.09198999999978
 21
-729.9394070000003
 31
0.0
  0
ARC
  5
2C1
  8
DATA
  6
CONTINUOUS
 62
     7
 10
-606.61070400000017
 20
-723.6217412000002
 30
0.0
 40
5.955664999999807
 50
106.41834499999869
 51
163.5816549999991
  0
CIRCLE
  5
2C2
  8
DATA
  6
CONTINUOUS
 62
     7
 10
-629.09198999999978
 20
-732.37780699999985
 30
0.0
 40
4.7999903999998406
  0
LINE
  5
2C3
  8
DATA
  6
CONTINUOUS
 62
     7
 10
-621.75525080000034
 20
-753.94685200000004
 30
0.0
 11
-618.90130679999982
 21
-744.26142559999982
 31
0.0
  0
ARC
  5
2C4
  8
DATA
  6
CONTINUOUS
 62
     7
 10
-557.28999999999985
 20
-772.94241980000015
 30
0.0
 40
67.205656800000014
 50
163.58165500000001
 51
196.41834700000001
  0
LINE
  5
2C5
  8
DATA
  6
CONTINUOUS
 62
     7
 10
-618.90130679999982
 20
-744.26142559999982
 30
0.0
 11
-612.32349420000025
 21
-721.9383816000003
 31
0.0
  0
CIRCLE
  5
2C6
  8
DATA
  6
CONTINUOUS
 62
     7
 10
-604.96422519999987
 20
-725.26819460000002
 30
0.0
 40
3.9999920000000202
  0
ARC
  5
2C7
  8
DATA
  6
CONTINUOUS
 62
     7
 10
-620.41615120112829
 20
-642.34250208626122
 30
0.0
 40
61.634294695115798
 50
324.29955536310968
 51
325.60264391160388
  0
LINE
  5
2C8
  8
DATA
  6
CONTINUOUS
 62
     7
 10
-569.25520000000006
 20
-677.28744219999999
 30
0.0
 11
-563.92996275782252
 21
-677.28744219999999
 31
0.0
  0
ARC
  5
2C9
  8
DATA
  6
CONTINUOUS
 62
     7
 10
-571.68434397858925
 20
-688.48912054497055
 30
0.0
 40
9.0422238595144453
 50
116.2890981437431
 51
188.35420441684099
  0
ARC
  5
2CA
  8
DATA
  6
CONTINUOUS
 62
     7
 10
-563.2791246421865
 20
-704.38312673551161
 30
0.0
 40
27.01956158809417
 50
95.131813018733197
 51
117.3418064429646
  0
ARC
  5
2CB
  8
DATA
  6
CONTINUOUS
 62
     7
 10
-569.25520000000006
 20
-676.85744220000015
 30
0.0
 40
0.4300000000002911
 50
180.0
 51
270.0
  0
LINE
  5
2CC
  8
DATA
  6
CONTINUOUS
 62
     7
 10
-543.79000000000042
 20
-686.73051880000003
 30
0.0
 11
-543.79000000000042
 21
-713.73051880000003
 31
0.0
  0
TEXT
  5
2CD
  8
DATA
  6
CONTINUOUS
 62
     7
 10
-547.86722567974402
 20
-690.23051879999969
 30
0.0
 40
2.578125
  1
25
 41
0.75
 11
-547.86722567974402
 21
-687.65239379999969
 31
0.0
 73
     3
  0
LINE
  5
2CE
  8
DATA
  6
CONTINUOUS
 62
     7
 10
-502.25650580000001
 20
-823.94648339999992
 30
0.0
 11
-493.52950976976848
 21
-794.32974541089573
 31
0.0
  0
LINE
  5
2CF
  8
DATA
  6
CONTINUOUS
 62
     7
 10
-538.29440680000005
 20
-837.40767059999996
 30
0.0
 11
-506.28593640000008
 21
-827.97593940000002
 31
0.0
  0
ARC
  5
2D0
  8
DATA
  6
CONTINUOUS
 62
     7
 10
-507.9692960000001
 20
-822.26312380000013
 30
0.0
 40
5.9556649999999349
 50
286.41834500000289
 51
343.58165499999922
  0
ARC
  5
2D1
  8
DATA
  6
CONTINUOUS
 62
     7
 10
-233.16914525112909
 20
-576.35603281279919
 30
0.0
 40
340.21368080080811
 50
211.93950101276451
 51
218.7491509013027
  0
LINE
  5
2D2
  8
DATA
  6
CONTINUOUS
 62
     7
 10
-650.0
 20
-359.84689591111078
 30
0.0
 11
-611.23889385095254
 21
-265.33755351699767
 31
0.0
  0
ARC
  5
2D3
  8
DATA
  6
CONTINUOUS
 62
     7
 10
-494.1638487988717
 20
-678.79201231373884
 30
0.0
 40
61.634294695115827
 50
113.95648030189891
 51
145.60264391160399
  0
LINE
  5
2D4
  8
DATA
  6
CONTINUOUS
 62
     7
 10
-637.05014019999999
 20
-624.59560600000009
 30
0.0
 11
-637.05014019999999
 21
-631.96760599999982
 31
0.0
  0
ARC
  5
2D5
  8
DATA
  6
CONTINUOUS
 62
     7
 10
-620.41615120112829
 20
-678.79201231373884
 30
0.0
 40
61.634294695115798
 50
34.397356088396023
 51
66.043519698101122
  0
LINE
  5
2D6
  8
DATA
  6
CONTINUOUS
 62
     7
 10
-519.19000000000005
 20
-622.46725719999995
 30
0.0
 11
-519.19000000000005
 21
-660.88291400859737
 31
0.0
  0
ARC
  5
2D7
  8
DATA
  6
CONTINUOUS
 62
     7
 10
-559.22592729152484
 20
-642.6518385182876
 30
0.0
 40
34.10990821263735
 50
283.31519453450682
 51
316.21095781789842
  0
LINE
  5
2D8
  8
DATA
  6
CONTINUOUS
 62
     7
 10
-545.32479999999975
 20
-643.84707220000007
 30
0.0
 11
-569.25520000000006
 21
-643.84707220000007
 31
0.0
  0
ARC
  5
2D9
  8
DATA
  6
CONTINUOUS
 62
     7
 10
-557.28999999999985
 20
-660.56725719999974
 30
0.0
 40
8.8900000000001018
 50
278.2132210000006
 51
81.786778999999214
  0
ARC
  5
2DA
  8
DATA
  6
CONTINUOUS
 62
     7
 10
-638.57014019999986
 20
-631.96760599999982
 30
0.0
 40
1.5199999999999809
 50
270.0
 51
0.0
  0
LINE
  5
2DB
  8
DATA
  6
CONTINUOUS
 62
     7
 10
-638.57014019999986
 20
-633.4876059999998
 30
0.0
 11
-640.09814019999999
 21
-633.4876059999998
 31
0.0
  0
ARC
  5
2DC
  8
DATA
  6
CONTINUOUS
 62
     7
 10
-569.25520000000006
 20
-644.27707220000002
 30
0.0
 40
0.4299999999998363
 50
90.0
 51
180.0
  0
POLYLINE
  5
2DD
  8
DATA
  6
CONTINUOUS
 62
     7
 66
     1
 10
0.0
 20
0.0
 30
0.0
 70
   128
  0
VERTEX
  5
5FA
  8
DATA
  6
CONTINUOUS
 62
     7
 10
-558.55997882318525
 20
-672.3386332
 30
0.0
  0
VERTEX
  5
5FB
  8
DATA
  6
CONTINUOUS
 62
     7
 10
-558.55997882318525
 20
-672.43892608194096
 30
0.0
  0
VERTEX
  5
5FC
  8
DATA
  6
CONTINUOUS
 62
     7
 10
-558.55718904110495
 20
-672.56622444471145
 30
0.0
  0
VERTEX
  5
5FD
  8
DATA
  6
CONTINUOUS
 62
     7
 10
-558.55334811722832
 20
-672.69077510772956
 30
0.0
  0
VERTEX
  5
5FE
  8
DATA
  6
CONTINUOUS
 62
     7
 10
-558.54845605155515
 20
-672.8125780709961
 30
0.0
  0
VERTEX
  5
5FF
  8
DATA
  6
CONTINUOUS
 62
     7
 10
-558.54251284408519
 20
-672.93163333451025
 30
0.0
  0
VERTEX
  5
600
  8
DATA
  6
CONTINUOUS
 62
     7
 10
-558.53551849481892
 20
-673.04794089827215
 30
0.0
  0
VERTEX
  5
601
  8
DATA
  6
CONTINUOUS
 62
     7
 10
-558.52747300375597
 20
-673.161500762282
 30
0.0
  0
VERTEX
  5
602
  8
DATA
  6
CONTINUOUS
 62
     7
 10
-558.51837637089648
 20
-673.27231292653983
 30
0.0
  0
VERTEX
  5
603
  8
DATA
  6
CONTINUOUS
 62
     7
 10
-558.50822859624043
 20
-673.38037739104539
 30
0.0
  0
VERTEX
  5
604
  8
DATA
  6
CONTINUOUS
 62
     7
 10
-558.49695395061724
 20
-673.48668295927598
 30
0.0
  0
VERTEX
  5
605
  8
DATA
  6
CONTINUOUS
 62
     7
 10
-558.48447670485598
 20
-673.59221843470903
 30
0.0
  0
VERTEX
  5
606
  8
DATA
  6
CONTINUOUS
 62
     7
 10
-558.47079685895665
 20
-673.69698381734395
 30
0.0
  0
VERTEX
  5
607
  8
DATA
  6
CONTINUOUS
 62
     7
 10
-558.45591441291936
 20
-673.80097910718121
 30
0.0
  0
VERTEX
  5
608
  8
DATA
  6
CONTINUOUS
 62
     7
 10
-558.43982936674399
 20
-673.90420430422057
 30
0.0
  0
VERTEX
  5
609
  8
DATA
  6
CONTINUOUS
 62
     7
 10
-558.4225417204309
 20
-674.00665940846216
 30
0.0
  0
VERTEX
  5
60A
  8
DATA
  6
CONTINUOUS
 62
     7
 10
-558.40405147397962
 20
-674.10834441990585
 30
0.0
  0
VERTEX
  5
60B
  8
DATA
  6
CONTINUOUS
 62
     7
 10
-558.38435862739027
 20
-674.20925933855176
 30
0.0
  0
VERTEX
  5
60C
  8
DATA
  6
CONTINUOUS
 62
     7
 10
-558.36352979532512
 20
-674.30873996257105
 30
0.0
  0
VERTEX
  5
60D
  8
DATA
  6
CONTINUOUS
 62
     7
 10
-558.34163159244633
 20
-674.40612209013489
 30
0.0
  0
VERTEX
  5
60E
  8
DATA
  6
CONTINUOUS
 62
     7
 10
-558.31866401875368
 20
-674.50140572124349
 30
0.0
  0
VERTEX
  5
60F
  8
DATA
  6
CONTINUOUS
 62
     7
 10
-558.29462707424705
 20
-674.59459085589651
 30
0.0
  0
VERTEX
  5
610
  8
DATA
  6
CONTINUOUS
 62
     7
 10
-558.26952075892677
 20
-674.68567749409408
 30
0.0
  0
VERTEX
  5
611
  8
DATA
  6
CONTINUOUS
 62
     7
 10
-558.24334507279286
 20
-674.7746656358363
 30
0.0
  0
VERTEX
  5
612
  8
DATA
  6
CONTINUOUS
 62
     7
 10
-558.2161000158452
 20
-674.86155528112329
 30
0.0
  0
VERTEX
  5
613
  8
DATA
  6
CONTINUOUS
 62
     7
 10
-558.18778558808356
 20
-674.94634642995447
 30
0.0
  0
VERTEX
  5
614
  8
DATA
  6
CONTINUOUS
 62
     7
 10
-558.15857431600125
 20
-675.02853037327452
 30
0.0
  0
VERTEX
  5
615
  8
DATA
  6
CONTINUOUS
 62
     7
 10
-558.1286387260908
 20
-675.10759840202775
 30
0.0
  0
VERTEX
  5
616
  8
DATA
  6
CONTINUOUS
 62
     7
 10
-558.09797881835266
 20
-675.18355051621415
 30
0.0
  0
VERTEX
  5
617
  8
DATA
  6
CONTINUOUS
 62
     7
 10
-558.06659459278637
 20
-675.25638671583329
 30
0.0
  0
VERTEX
  5
618
  8
DATA
  6
CONTINUOUS
 62
     7
 10
-558.0344860493924
 20
-675.32610700088537
 30
0.0
  0
VERTEX
  5
619
  8
DATA
  6
CONTINUOUS
 62
     7
 10
-558.00165318817017
 20
-675.39271137137052
 30
0.0
  0
VERTEX
  5
61A
  8
DATA
  6
CONTINUOUS
 62
     7
 10
-557.96809600912025
 20
-675.45619982728886
 30
0.0
  0
VERTEX
  5
61B
  8
DATA
  6
CONTINUOUS
 62
     7
 10
-557.93381451224207
 20
-675.51657236864003
 30
0.0
  0
VERTEX
  5
61C
  8
DATA
  6
CONTINUOUS
 62
     7
 10
-557.89903728288652
 20
-675.57364421135514
 30
0.0
  0
VERTEX
  5
61D
  8
DATA
  6
CONTINUOUS
 62
     7
 10
-557.8639929064035
 20
-675.62723057136554
 30
0.0
  0
VERTEX
  5
61E
  8
DATA
  6
CONTINUOUS
 62
     7
 10
-557.82868138279298
 20
-675.67733144867066
 30
0.0
  0
VERTEX
  5
61F
  8
DATA
  6
CONTINUOUS
 62
     7
 10
-557.79310271205532
 20
-675.72394684327071
 30
0.0
  0
VERTEX
  5
620
  8
DATA
  6
CONTINUOUS
 62
     7
 10
-557.75725689419005
 20
-675.76707675516582
 30
0.0
  0
VERTEX
  5
621
  8
DATA
  6
CONTINUOUS
 62
     7
 10
-557.72114392919775
 20
-675.80672118435587
 30
0.0
  0
VERTEX
  5
622
  8
DATA
  6
CONTINUOUS
 62
     7
 10
-557.68476381707796
 20
-675.84288013084097
 30
0.0
  0
VERTEX
  5
623
  8
DATA
  6
CONTINUOUS
 62
     7
 10
-557.64811655783058
 20
-675.87555359462112
 30
0.0
  0
VERTEX
  5
624
  8
DATA
  6
CONTINUOUS
 62
     7
 10
-557.61090219287428
 20
-675.9050265577456
 30
0.0
  0
VERTEX
  5
625
  8
DATA
  6
CONTINUOUS
 62
     7
 10
-557.57282076362685
 20
-675.93158400226434
 30
0.0
  0
VERTEX
  5
626
  8
DATA
  6
CONTINUOUS
 62
     7
 10
-557.53387227008864
 20
-675.95522592817724
 30
0.0
  0
VERTEX
  5
627
  8
DATA
  6
CONTINUOUS
 62
     7
 10
-557.49405671225941
 20
-675.97595233548407
 30
0.0
  0
VERTEX
  5
628
  8
DATA
  6
CONTINUOUS
 62
     7
 10
-557.45337409013928
 20
-675.99376322418516
 30
0.0
  0
VERTEX
  5
629
  8
DATA
  6
CONTINUOUS
 62
     7
 10
-557.41182440372802
 20
-676.00865859428006
 30
0.0
  0
VERTEX
  5
62A
  8
DATA
  6
CONTINUOUS
 62
     7
 10
-557.36940765302597
 20
-676.02063844576935
 30
0.0
  0
VERTEX
  5
62B
  8
DATA
  6
CONTINUOUS
 62
     7
 10
-557.32612383803291
 20
-676.02970277865268
 30
0.0
  0
VERTEX
  5
62C
  8
DATA
  6
CONTINUOUS
 62
     7
 10
-557.28227059734911
 20
-676.03442495169338
 30
0.0
  0
VERTEX
  5
62D
  8
DATA
  6
CONTINUOUS
 62
     7
 10
-557.23814556957461
 20
-676.03337832365457
 30
0.0
  0
VERTEX
  5
62E
  8
DATA
  6
CONTINUOUS
 62
     7
 10
-557.19374875470942
 20
-676.02656289453671
 30
0.0
  0
VERTEX
  5
62F
  8
DATA
  6
CONTINUOUS
 62
     7
 10
-557.14908015275364
 20
-676.01397866433945
 30
0.0
  0
VERTEX
  5
630
  8
DATA
  6
CONTINUOUS
 62
     7
 10
-557.10413976370705
 20
-675.99562563306313
 30
0.0
  0
VERTEX
  5
631
  8
DATA
  6
CONTINUOUS
 62
     7
 10
-557.05892758757
 20
-675.97150380070718
 30
0.0
  0
VERTEX
  5
632
  8
DATA
  6
CONTINUOUS
 62
     7
 10
-557.01344362434224
 20
-675.94161316727195
 30
0.0
  0
VERTEX
  5
633
  8
DATA
  6
CONTINUOUS
 62
     7
 10
-556.9676878740238
 20
-675.90595373275755
 30
0.0
  0
VERTEX
  5
634
  8
DATA
  6
CONTINUOUS
 62
     7
 10
-556.92250036857399
 20
-675.86613411584813
 30
0.0
  0
VERTEX
  5
635
  8
DATA
  6
CONTINUOUS
 62
     7
 10
-556.87872113995195
 20
-675.8237629352285
 30
0.0
  0
VERTEX
  5
636
  8
DATA
  6
CONTINUOUS
 62
     7
 10
-556.83635018815801
 20
-675.77884019089834
 30
0.0
  0
VERTEX
  5
637
  8
DATA
  6
CONTINUOUS
 62
     7
 10
-556.79538751319183
 20
-675.73136588285752
 30
0.0
  0
VERTEX
  5
638
  8
DATA
  6
CONTINUOUS
 62
     7
 10
-556.75583311505352
 20
-675.68134001110627
 30
0.0
  0
VERTEX
  5
639
  8
DATA
  6
CONTINUOUS
 62
     7
 10
-556.71768699374309
 20
-675.62876257564471
 30
0.0
  0
VERTEX
  5
63A
  8
DATA
  6
CONTINUOUS
 62
     7
 10
-556.68094914926064
 20
-675.5736335764725
 30
0.0
  0
VERTEX
  5
63B
  8
DATA
  6
CONTINUOUS
 62
     7
 10
-556.64561958160596
 20
-675.51595301358986
 30
0.0
  0
VERTEX
  5
63C
  8
DATA
  6
CONTINUOUS
 62
     7
 10
-556.61135691871095
 20
-675.45544820786847
 30
0.0
  0
VERTEX
  5
63D
  8
DATA
  6
CONTINUOUS
 62
     7
 10
-556.57781978850687
 20
-675.39184648017988
 30
0.0
  0
VERTEX
  5
63E
  8
DATA
  6
CONTINUOUS
 62
     7
 10
-556.54500819099349
 20
-675.3251478305242
 30
0.0
  0
VERTEX
  5
63F
  8
DATA
  6
CONTINUOUS
 62
     7
 10
-556.51292212617182
 20
-675.2553522589011
 30
0.0
  0
VERTEX
  5
640
  8
DATA
  6
CONTINUOUS
 62
     7
 10
-556.48156159404084
 20
-675.18245976531102
 30
0.0
  0
VERTEX
  5
641
  8
DATA
  6
CONTINUOUS
 62
     7
 10
-556.4509265946009
 20
-675.10647034975364
 30
0.0
  0
VERTEX
  5
642
  8
DATA
  6
CONTINUOUS
 62
     7
 10
-556.42101712785211
 20
-675.02738401222905
 30
0.0
  0
VERTEX
  5
643
  8
DATA
  6
CONTINUOUS
 62
     7
 10
-556.39183319379435
 20
-674.94520075273738
 30
0.0
  0
VERTEX
  5
644
  8
DATA
  6
CONTINUOUS
 62
     7
 10
-556.36354678757834
 20
-674.86041977155855
 30
0.0
  0
VERTEX
  5
645
  8
DATA
  6
CONTINUOUS
 62
     7
 10
-556.33632990435467
 20
-674.77354026897251
 30
0.0
  0
VERTEX
  5
646
  8
DATA
  6
CONTINUOUS
 62
     7
 10
-556.31018254412345
 20
-674.68456224497959
 30
0.0
  0
VERTEX
  5
647
  8
DATA
  6
CONTINUOUS
 62
     7
 10
-556.28510470688445
 20
-674.59348569957945
 30
0.0
  0
VERTEX
  5
648
  8
DATA
  6
CONTINUOUS
 62
     7
 10
-556.26109639263825
 20
-674.5003106327722
 30
0.0
  0
VERTEX
  5
649
  8
DATA
  6
CONTINUOUS
 62
     7
 10
-556.23815760138427
 20
-674.40503704455796
 30
0.0
  0
VERTEX
  5
64A
  8
DATA
  6
CONTINUOUS
 62
     7
 10
-556.21628833312275
 20
-674.30766493493661
 30
0.0
  0
VERTEX
  5
64B
  8
DATA
  6
CONTINUOUS
 62
     7
 10
-556.19548858785367
 20
-674.20819430390816
 30
0.0
  0
VERTEX
  5
64C
  8
DATA
  6
CONTINUOUS
 62
     7
 10
-556.17582493433565
 20
-674.10729133698078
 30
0.0
  0
VERTEX
  5
64D
  8
DATA
  6
CONTINUOUS
 62
     7
 10
-556.1573639413275
 20
-674.00562221966197
 30
0.0
  0
VERTEX
  5
64E
  8
DATA
  6
CONTINUOUS
 62
     7
 10
-556.14010560882912
 20
-673.90318695195219
 30
0.0
  0
VERTEX
  5
64F
  8
DATA
  6
CONTINUOUS
 62
     7
 10
-556.12404993684038
 20
-673.79998553385155
 30
0.0
  0
VERTEX
  5
650
  8
DATA
  6
CONTINUOUS
 62
     7
 10
-556.1091969253614
 20
-673.69601796536006
 30
0.0
  0
VERTEX
  5
651
  8
DATA
  6
CONTINUOUS
 62
     7
 10
-556.09554657439196
 20
-673.59128424647713
 30
0.0
  0
VERTEX
  5
652
  8
DATA
  6
CONTINUOUS
 62
     7
 10
-556.08309888393262
 20
-673.48578437720323
 30
0.0
  0
VERTEX
  5
653
  8
DATA
  6
CONTINUOUS
 62
     7
 10
-556.07185385398282
 20
-673.37951835753825
 30
0.0
  0
VERTEX
  5
654
  8
DATA
  6
CONTINUOUS
 62
     7
 10
-556.06173040028136
 20
-673.27150364522925
 30
0.0
  0
VERTEX
  5
655
  8
DATA
  6
CONTINUOUS
 62
     7
 10
-556.05264743856674
 20
-673.16075769802285
 30
0.0
  0
VERTEX
  5
656
  8
DATA
  6
CONTINUOUS
 62
     7
 10
-556.04460496883871
 20
-673.04728051591928
 30
0.0
  0
VERTEX
  5
657
  8
DATA
  6
CONTINUOUS
 62
     7
 10
-556.03760299109729
 20
-672.93107209891821
 30
0.0
  0
VERTEX
  5
658
  8
DATA
  6
CONTINUOUS
 62
     7
 10
-556.03164150534292
 20
-672.81213244701962
 30
0.0
  0
VERTEX
  5
659
  8
DATA
  6
CONTINUOUS
 62
     7
 10
-556.02672051157515
 20
-672.69046156022421
 30
0.0
  0
VERTEX
  5
65A
  8
DATA
  6
CONTINUOUS
 62
     7
 10
-556.02284000979409
 20
-672.56605943853117
 30
0.0
  0
VERTEX
  5
65B
  8
DATA
  6
CONTINUOUS
 62
     7
 10
-556.01999999999998
 20
-672.43892608194096
 30
0.0
  0
VERTEX
  5
65C
  8
DATA
  6
CONTINUOUS
 62
     7
 10
-556.01999999999998
 20
-672.43892608194096
 30
0.0
  0
VERTEX
  5
65D
  8
DATA
  6
CONTINUOUS
 62
     7
 10
-556.01999999999998
 20
-672.3386332
 30
0.0
  0
SEQEND
  5
65E
  8
DATA
  6
CONTINUOUS
 62
     7
  0
POLYLINE
  5
343
  8
DATA
  6
CONTINUOUS
 62
     7
 66
     1
 10
0.0
 20
0.0
 30
0.0
 70
   128
  0
VERTEX
  5
65F
  8
DATA
  6
CONTINUOUS
 62
     7
 10
-556.01999999999998
 20
-648.79588120000005
 30
0.0
  0
VERTEX
  5
660
  8
DATA
  6
CONTINUOUS
 62
     7
 10
-556.01999999999998
 20
-648.69558831805898
 30
0.0
  0
VERTEX
  5
661
  8
DATA
  6
CONTINUOUS
 62
     7
 10
-556.02278978208005
 20
-648.56828995528849
 30
0.0
  0
VERTEX
  5
662
  8
DATA
  6
CONTINUOUS
 62
     7
 10
-556.0266307059569
 20
-648.44373929227015
 30
0.0
  0
VERTEX
  5
663
  8
DATA
  6
CONTINUOUS
 62
     7
 10
-556.03152277163008
 20
-648.32193632900385
 30
0.0
  0
VERTEX
  5
664
  8
DATA
  6
CONTINUOUS
 62
     7
 10
-556.03746597910003
 20
-648.20288106548958
 30
0.0
  0
VERTEX
  5
665
  8
DATA
  6
CONTINUOUS
 62
     7
 10
-556.04446032836631
 20
-648.08657350172768
 30
0.0
  0
VERTEX
  5
666
  8
DATA
  6
CONTINUOUS
 62
     7
 10
-556.05250581942926
 20
-647.97301363771794
 30
0.0
  0
VERTEX
  5
667
  8
DATA
  6
CONTINUOUS
 62
     7
 10
-556.06160245228887
 20
-647.86220147346012
 30
0.0
  0
VERTEX
  5
668
  8
DATA
  6
CONTINUOUS
 62
     7
 10
-556.07175022694457
 20
-647.75413700895444
 30
0.0
  0
VERTEX
  5
669
  8
DATA
  6
CONTINUOUS
 62
     7
 10
-556.08302487256799
 20
-647.64783144072362
 30
0.0
  0
VERTEX
  5
66A
  8
DATA
  6
CONTINUOUS
 62
     7
 10
-556.09550211832925
 20
-647.54229596529092
 30
0.0
  0
VERTEX
  5
66B
  8
DATA
  6
CONTINUOUS
 62
     7
 10
-556.10918196422847
 20
-647.43753058265588
 30
0.0
  0
VERTEX
  5
66C
  8
DATA
  6
CONTINUOUS
 62
     7
 10
-556.12406441026576
 20
-647.33353529281874
 30
0.0
  0
VERTEX
  5
66D
  8
DATA
  6
CONTINUOUS
 62
     7
 10
-556.14014945644112
 20
-647.23031009577915
 30
0.0
  0
VERTEX
  5
66E
  8
DATA
  6
CONTINUOUS
 62
     7
 10
-556.15743710275433
 20
-647.12785499153767
 30
0.0
  0
VERTEX
  5
66F
  8
DATA
  6
CONTINUOUS
 62
     7
 10
-556.17592734920561
 20
-647.02616998009421
 30
0.0
  0
VERTEX
  5
670
  8
DATA
  6
CONTINUOUS
 62
     7
 10
-556.19562019579519
 20
-646.92525506144818
 30
0.0
  0
VERTEX
  5
671
  8
DATA
  6
CONTINUOUS
 62
     7
 10
-556.21644902786022
 20
-646.825774437429
 30
0.0
  0
VERTEX
  5
672
  8
DATA
  6
CONTINUOUS
 62
     7
 10
-556.23834723073924
 20
-646.72839230986517
 30
0.0
  0
VERTEX
  5
673
  8
DATA
  6
CONTINUOUS
 62
     7
 10
-556.26131480443189
 20
-646.63310867875657
 30
0.0
  0
VERTEX
  5
674
  8
DATA
  6
CONTINUOUS
 62
     7
 10
-556.28535174893841
 20
-646.53992354410366
 30
0.0
  0
VERTEX
  5
675
  8
DATA
  6
CONTINUOUS
 62
     7
 10
-556.31045806425846
 20
-646.44883690590598
 30
0.0
  0
VERTEX
  5
676
  8
DATA
  6
CONTINUOUS
 62
     7
 10
-556.33663375039237
 20
-646.35984876416387
 30
0.0
  0
VERTEX
  5
677
  8
DATA
  6
CONTINUOUS
 62
     7
 10
-556.36387880734026
 20
-646.272959118877
 30
0.0
  0
VERTEX
  5
678
  8
DATA
  6
CONTINUOUS
 62
     7
 10
-556.39219323510179
 20
-646.18816797004547
 30
0.0
  0
VERTEX
  5
679
  8
DATA
  6
CONTINUOUS
 62
     7
 10
-556.42140450718409
 20
-646.10598402672542
 30
0.0
  0
VERTEX
  5
67A
  8
DATA
  6
CONTINUOUS
 62
     7
 10
-556.45134009709432
 20
-646.02691599797231
 30
0.0
  0
VERTEX
  5
67B
  8
DATA
  6
CONTINUOUS
 62
     7
 10
-556.48200000483246
 20
-645.95096388378602
 30
0.0
  0
VERTEX
  5
67C
  8
DATA
  6
CONTINUOUS
 62
     7
 10
-556.51338423039886
 20
-645.87812768416666
 30
0.0
  0
VERTEX
  5
67D
  8
DATA
  6
CONTINUOUS
 62
     7
 10
-556.54549277379294
 20
-645.80840739911457
 30
0.0
  0
VERTEX
  5
67E
  8
DATA
  6
CONTINUOUS
 62
     7
 10
-556.57832563501506
 20
-645.74180302862919
 30
0.0
  0
VERTEX
  5
67F
  8
DATA
  6
CONTINUOUS
 62
     7
 10
-556.61188281406521
 20
-645.67831457271109
 30
0.0
  0
VERTEX
  5
680
  8
DATA
  6
CONTINUOUS
 62
     7
 10
-556.64616431094316
 20
-645.61794203136003
 30
0.0
  0
VERTEX
  5
681
  8
DATA
  6
CONTINUOUS
 62
     7
 10
-556.68094154029916
 20
-645.56087018864491
 30
0.0
  0
VERTEX
  5
682
  8
DATA
  6
CONTINUOUS
 62
     7
 10
-556.71598591678196
 20
-645.50728382863474
 30
0.0
  0
VERTEX
  5
683
  8
DATA
  6
CONTINUOUS
 62
     7
 10
-556.75129744039225
 20
-645.45718295132951
 30
0.0
  0
VERTEX
  5
684
  8
DATA
  6
CONTINUOUS
 62
     7
 10
-556.78687611113003
 20
-645.41056755672935
 30
0.0
  0
VERTEX
  5
685
  8
DATA
  6
CONTINUOUS
 62
     7
 10
-556.82272192899518
 20
-645.36743764483435
 30
0.0
  0
VERTEX
  5
686
  8
DATA
  6
CONTINUOUS
 62
     7
 10
-556.85883489398771
 20
-645.32779321564442
 30
0.0
  0
VERTEX
  5
687
  8
DATA
  6
CONTINUOUS
 62
     7
 10
-556.89521500610772
 20
-645.29163426915898
 30
0.0
  0
VERTEX
  5
688
  8
DATA
  6
CONTINUOUS
 62
     7
 10
-556.93186226535488
 20
-645.25896080537905
 30
0.0
  0
VERTEX
  5
689
  8
DATA
  6
CONTINUOUS
 62
     7
 10
-556.96907663031118
 20
-645.22948784225434
 30
0.0
  0
VERTEX
  5
68A
  8
DATA
  6
CONTINUOUS
 62
     7
 10
-557.00715805955826
 20
-645.20293039773549
 30
0.0
  0
VERTEX
  5
68B
  8
DATA
  6
CONTINUOUS
 62
     7
 10
-557.04610655309682
 20
-645.17928847182293
 30
0.0
  0
VERTEX
  5
68C
  8
DATA
  6
CONTINUOUS
 62
     7
 10
-557.08592211092571
 20
-645.15856206451588
 30
0.0
  0
VERTEX
  5
68D
  8
DATA
  6
CONTINUOUS
 62
     7
 10
-557.12660473304595
 20
-645.14075117581501
 30
0.0
  0
VERTEX
  5
68E
  8
DATA
  6
CONTINUOUS
 62
     7
 10
-557.1681544194571
 20
-645.12585580571988
 30
0.0
  0
VERTEX
  5
68F
  8
DATA
  6
CONTINUOUS
 62
     7
 10
-557.21057117015926
 20
-645.11387595423071
 30
0.0
  0
VERTEX
  5
690
  8
DATA
  6
CONTINUOUS
 62
     7
 10
-557.25385498515232
 20
-645.10481162134761
 30
0.0
  0
VERTEX
  5
691
  8
DATA
  6
CONTINUOUS
 62
     7
 10
-557.29770822583635
 20
-645.10008944830702
 30
0.0
  0
VERTEX
  5
692
  8
DATA
  6
CONTINUOUS
 62
     7
 10
-557.34183325361084
 20
-645.10113607634548
 30
0.0
  0
VERTEX
  5
693
  8
DATA
  6
CONTINUOUS
 62
     7
 10
-557.38623006847604
 20
-645.10795150546335
 30
0.0
  0
VERTEX
  5
694
  8
DATA
  6
CONTINUOUS
 62
     7
 10
-557.43089867043182
 20
-645.12053573566084
 30
0.0
  0
VERTEX
  5
695
  8
DATA
  6
CONTINUOUS
 62
     7
 10
-557.4758390594784
 20
-645.13888876693727
 30
0.0
  0
VERTEX
  5
696
  8
DATA
  6
CONTINUOUS
 62
     7
 10
-557.52105123561546
 20
-645.16301059929287
 30
0.0
  0
VERTEX
  5
697
  8
DATA
  6
CONTINUOUS
 62
     7
 10
-557.5665351988431
 20
-645.19290123272799
 30
0.0
  0
VERTEX
  5
698
  8
DATA
  6
CONTINUOUS
 62
     7
 10
-557.61229094916155
 20
-645.22856066724239
 30
0.0
  0
VERTEX
  5
699
  8
DATA
  6
CONTINUOUS
 62
     7
 10
-557.65747845461146
 20
-645.26838028415159
 30
0.0
  0
VERTEX
  5
69A
  8
DATA
  6
CONTINUOUS
 62
     7
 10
-557.70125768323328
 20
-645.31075146477122
 30
0.0
  0
VERTEX
  5
69B
  8
DATA
  6
CONTINUOUS
 62
     7
 10
-557.74362863502745
 20
-645.35567420910149
 30
0.0
  0
VERTEX
  5
69C
  8
DATA
  6
CONTINUOUS
 62
     7
 10
-557.78459130999352
 20
-645.40314851714231
 30
0.0
  0
VERTEX
  5
69D
  8
DATA
  6
CONTINUOUS
 62
     7
 10
-557.82414570813171
 20
-645.45317438889333
 30
0.0
  0
VERTEX
  5
69E
  8
DATA
  6
CONTINUOUS
 62
     7
 10
-557.86229182944203
 20
-645.50575182435512
 30
0.0
  0
VERTEX
  5
69F
  8
DATA
  6
CONTINUOUS
 62
     7
 10
-557.89902967392447
 20
-645.56088082352721
 30
0.0
  0
VERTEX
  5
6A0
  8
DATA
  6
CONTINUOUS
 62
     7
 10
-557.93435924157905
 20
-645.61856138640985
 30
0.0
  0
VERTEX
  5
6A1
  8
DATA
  6
CONTINUOUS
 62
     7
 10
-557.96862190447428
 20
-645.67906619213136
 30
0.0
  0
VERTEX
  5
6A2
  8
DATA
  6
CONTINUOUS
 62
     7
 10
-558.00215903467824
 20
-645.74266791981995
 30
0.0
  0
VERTEX
  5
6A3
  8
DATA
  6
CONTINUOUS
 62
     7
 10
-558.03497063219152
 20
-645.80936656947586
 30
0.0
  0
VERTEX
  5
6A4
  8
DATA
  6
CONTINUOUS
 62
     7
 10
-558.06705669701353
 20
-645.87916214109885
 30
0.0
  0
VERTEX
  5
6A5
  8
DATA
  6
CONTINUOUS
 62
     7
 10
-558.09841722914439
 20
-645.95205463468915
 30
0.0
  0
VERTEX
  5
6A6
  8
DATA
  6
CONTINUOUS
 62
     7
 10
-558.12905222858433
 20
-646.02804405024654
 30
0.0
  0
VERTEX
  5
6A7
  8
DATA
  6
CONTINUOUS
 62
     7
 10
-558.15896169533335
 20
-646.10713038777112
 30
0.0
  0
VERTEX
  5
6A8
  8
DATA
  6
CONTINUOUS
 62
     7
 10
-558.1881456293911
 20
-646.18931364726257
 30
0.0
  0
VERTEX
  5
6A9
  8
DATA
  6
CONTINUOUS
 62
     7
 10
-558.21643203560711
 20
-646.27409462844162
 30
0.0
  0
VERTEX
  5
6AA
  8
DATA
  6
CONTINUOUS
 62
     7
 10
-558.24364891883079
 20
-646.36097413102755
 30
0.0
  0
VERTEX
  5
6AB
  8
DATA
  6
CONTINUOUS
 62
     7
 10
-558.26979627906223
 20
-646.44995215502036
 30
0.0
  0
VERTEX
  5
6AC
  8
DATA
  6
CONTINUOUS
 62
     7
 10
-558.294874116301
 20
-646.54102870042072
 30
0.0
  0
VERTEX
  5
6AD
  8
DATA
  6
CONTINUOUS
 62
     7
 10
-558.31888243054721
 20
-646.63420376722786
 30
0.0
  0
VERTEX
  5
6AE
  8
DATA
  6
CONTINUOUS
 62
     7
 10
-558.34182122180118
 20
-646.72947735544233
 30
0.0
  0
VERTEX
  5
6AF
  8
DATA
  6
CONTINUOUS
 62
     7
 10
-558.36369049006282
 20
-646.82684946506367
 30
0.0
  0
VERTEX
  5
6B0
  8
DATA
  6
CONTINUOUS
 62
     7
 10
-558.3844902353319
 20
-646.92632009609201
 30
0.0
  0
VERTEX
  5
6B1
  8
DATA
  6
CONTINUOUS
 62
     7
 10
-558.40415388884992
 20
-647.02722306301951
 30
0.0
  0
VERTEX
  5
6B2
  8
DATA
  6
CONTINUOUS
 62
     7
 10
-558.42261488185795
 20
-647.12889218033831
 30
0.0
  0
VERTEX
  5
6B3
  8
DATA
  6
CONTINUOUS
 62
     7
 10
-558.43987321435645
 20
-647.23132744804775
 30
0.0
  0
VERTEX
  5
6B4
  8
DATA
  6
CONTINUOUS
 62
     7
 10
-558.45592888634508
 20
-647.33452886614839
 30
0.0
  0
VERTEX
  5
6B5
  8
DATA
  6
CONTINUOUS
 62
     7
 10
-558.47078189782405
 20
-647.43849643463989
 30
0.0
  0
VERTEX
  5
6B6
  8
DATA
  6
CONTINUOUS
 62
     7
 10
-558.48443224879327
 20
-647.5432301535227
 30
0.0
  0
VERTEX
  5
6B7
  8
DATA
  6
CONTINUOUS
 62
     7
 10
-558.49687993925272
 20
-647.64873002279649
 30
0.0
  0
VERTEX
  5
6B8
  8
DATA
  6
CONTINUOUS
 62
     7
 10
-558.50812496920253
 20
-647.75499604246147
 30
0.0
  0
VERTEX
  5
6B9
  8
DATA
  6
CONTINUOUS
 62
     7
 10
-558.51824842290387
 20
-647.86301075477036
 30
0.0
  0
VERTEX
  5
6BA
  8
DATA
  6
CONTINUOUS
 62
     7
 10
-558.52733138461872
 20
-647.97375670197675
 30
0.0
  0
VERTEX
  5
6BB
  8
DATA
  6
CONTINUOUS
 62
     7
 10
-558.53537385434652
 20
-648.08723388408055
 30
0.0
  0
VERTEX
  5
6BC
  8
DATA
  6
CONTINUOUS
 62
     7
 10
-558.54237583208783
 20
-648.20344230108162
 30
0.0
  0
VERTEX
  5
6BD
  8
DATA
  6
CONTINUOUS
 62
     7
 10
-558.54833731784231
 20
-648.32238195297998
 30
0.0
  0
VERTEX
  5
6BE
  8
DATA
  6
CONTINUOUS
 62
     7
 10
-558.55325831160997
 20
-648.44405283977551
 30
0.0
  0
VERTEX
  5
6BF
  8
DATA
  6
CONTINUOUS
 62
     7
 10
-558.55713881339102
 20
-648.56845496146866
 30
0.0
  0
VERTEX
  5
6C0
  8
DATA
  6
CONTINUOUS
 62
     7
 10
-558.55997882318525
 20
-648.69558831805898
 30
0.0
  0
VERTEX
  5
6C1
  8
DATA
  6
CONTINUOUS
 62
     7
 10
-558.55997882318525
 20
-648.69558831805898
 30
0.0
  0
VERTEX
  5
6C2
  8
DATA
  6
CONTINUOUS
 62
     7
 10
-558.55997882318525
 20
-648.79588120000005
 30
0.0
  0
SEQEND
  5
6C3
  8
DATA
  6
CONTINUOUS
 62
     7
  0
LINE
  5
3A9
  8
DATA
  6
CONTINUOUS
 62
     7
 10
-631.53039000000012
 20
-643.4778070000001
 30
0.0
 11
-626.65358999999989
 21
-643.4778070000001
 31
0.0
  0
LINE
  5
3AA
  8
DATA
  6
CONTINUOUS
 62
     7
 10
-629.09198999999978
 20
-645.9162070000001
 30
0.0
 11
-629.09198999999978
 21
-641.0394070000001
 31
0.0
  0
ARC
  5
3AB
  8
DATA
  6
CONTINUOUS
 62
     7
 10
-557.28999999999985
 20
-660.56725719999974
 30
0.0
 40
8.8899999999998744
 50
98.213221000000857
 51
261.7867789999994
  0
LINE
  5
3AC
  8
DATA
  6
CONTINUOUS
 62
     7
 10
-597.92999999999984
 20
-647.93075720000002
 30
0.0
 11
-597.92999999999984
 21
-673.20375720000015
 31
0.0
  0
LINE
  5
3AD
  8
DATA
  6
CONTINUOUS
 62
     7
 10
-595.49159999999983
 20
-647.93075720000002
 30
0.0
 11
-595.49159999999983
 21
-673.20375720000015
 31
0.0
  0
LINE
  5
3AE
  8
DATA
  6
CONTINUOUS
 62
     7
 10
-556.01999999999998
 20
-648.79588120000005
 30
0.0
 11
-556.01999999999998
 21
-672.3386332
 31
0.0
  0
LINE
  5
3AF
  8
DATA
  6
CONTINUOUS
 62
     7
 10
-558.55999999999995
 20
-648.79588120000005
 30
0.0
 11
-558.55999999999995
 21
-672.3386332
 31
0.0
  0
LINE
  5
3B0
  8
DATA
  6
CONTINUOUS
 62
     7
 10
-607.58199999999988
 20
-647.93075720000002
 30
0.0
 11
-607.58199999999988
 21
-673.20375720000015
 31
0.0
  0
LINE
  5
3B1
  8
DATA
  6
CONTINUOUS
 62
     7
 10
-610.02039999999977
 20
-647.93075720000002
 30
0.0
 11
-610.02039999999977
 21
-673.20375720000015
 31
0.0
  0
CIRCLE
  5
3B2
  8
DATA
  6
CONTINUOUS
 62
     7
 10
-629.09198999999978
 20
-643.47780699999998
 30
0.0
 40
4.7999903999998406
  0
ARC
  5
3B3
  8
DATA
  6
CONTINUOUS
 62
     7
 10
-602.75599999999974
 20
-647.93075720000002
 30
0.0
 40
4.8260000000000209
 50
0.0
 51
180.0
  0
ARC
  5
3B4
  8
DATA
  6
CONTINUOUS
 62
     7
 10
-602.75599999999974
 20
-647.93075720000002
 30
0.0
 40
7.2644000000000224
 50
0.0
 51
180.0
  0
LINE
  5
3B5
  8
DATA
  6
CONTINUOUS
 62
     7
 10
-544.89480000000003
 20
-673.60510375523245
 30
0.0
 11
-544.89480000000003
 21
-644.27707220000002
 31
0.0
  0
ARC
  5
3B6
  8
DATA
  6
CONTINUOUS
 62
     7
 10
-545.32479999999975
 20
-644.27707220000002
 30
0.0
 40
0.4299999999998363
 50
0.0
 51
90.0
  0
LINE
  5
3B7
  8
DATA
  6
CONTINUOUS
 62
     7
 10
-519.08840000000009
 20
-660.88851752467485
 30
0.0
 11
-519.08840000000009
 21
-647.93075720000002
 31
0.0
  0
LINE
  5
3B8
  8
DATA
  6
CONTINUOUS
 62
     7
 10
-516.64999999999998
 20
-661.01301664312473
 30
0.0
 11
-516.64999999999998
 21
-647.93075720000002
 31
0.0
  0
LINE
  5
3B9
  8
DATA
  6
CONTINUOUS
 62
     7
 10
-506.9980000000001
 20
-661.25240477349803
 30
0.0
 11
-506.9980000000001
 21
-647.93075720000002
 31
0.0
  0
LINE
  5
3BA
  8
DATA
  6
CONTINUOUS
 62
     7
 10
-504.5596000000001
 20
-660.91604767973945
 30
0.0
 11
-504.5596000000001
 21
-647.93075720000002
 31
0.0
  0
ARC
  5
3BB
  8
DATA
  6
CONTINUOUS
 62
     7
 10
-520.79935394154427
 20
-680.98749479942478
 30
0.0
 40
20.187483109129861
 50
89.474429345567913
 51
133.1361824668833
  0
ARC
  5
3BC
  8
DATA
  6
CONTINUOUS
 62
     7
 10
-501.98975014635693
 20
-349.940930185122
 30
0.0
 40
311.41735002903511
 50
266.57135913832491
 51
268.7751091413943
  0
ARC
  5
3BD
  8
DATA
  6
CONTINUOUS
 62
     7
 10
-508.19511945308801
 20
-643.56726742377998
 30
0.0
 40
17.725607974434901
 50
268.53970930357769
 51
294.72382064235512
  0
ARC
  5
3BE
  8
DATA
  6
CONTINUOUS
 62
     7
 10
-515.62341527903527
 20
-638.00488409095669
 30
0.0
 40
26.259774049041319
 50
304.41595332514629
 51
327.13049990452657
  0
ARC
  5
3BF
  8
DATA
  6
CONTINUOUS
 62
     7
 10
-511.82400000000013
 20
-647.93075720000002
 30
0.0
 40
4.8260000000000209
 50
0.0
 51
180.0
  0
ARC
  5
3C0
  8
DATA
  6
CONTINUOUS
 62
     7
 10
-511.82400000000013
 20
-647.93075720000002
 30
0.0
 40
7.2644000000000224
 50
0.0
 51
180.0
  0
LINE
  5
3C1
  8
DATA
  6
CONTINUOUS
 62
     7
 10
-519.19000000000005
 20
-622.46725719999995
 30
0.0
 11
-595.38999999999987
 21
-622.46725719999995
 31
0.0
  0
ARC
  5
3C2
  8
DATA
  6
CONTINUOUS
 62
     7
 10
-636.29014020000011
 20
-624.59560600000009
 30
0.0
 40
0.7599999999999909
 50
90.0
 51
180.0
  0
LINE
  5
3C3
  8
DATA
  6
CONTINUOUS
 62
     7
 10
-628.9181401999997
 20
-623.83560599999998
 30
0.0
 11
-636.29014020000011
 21
-623.83560599999998
 31
0.0
  0
ARC
  5
3C4
  8
DATA
  6
CONTINUOUS
 62
     7
 10
-628.9181401999997
 20
-622.315606
 30
0.0
 40
1.5199999999999809
 50
270.0
 51
0.0
  0
LINE
  5
3C5
  8
DATA
  6
CONTINUOUS
 62
     7
 10
-627.39814019999994
 20
-620.7876060000001
 30
0.0
 11
-627.39814019999994
 21
-622.315606
 31
0.0
  0
ARC
  5
3C6
  8
DATA
  6
CONTINUOUS
 62
     7
 10
-639.98764360000018
 20
-619.29495620000012
 30
0.0
 40
2.0299999999999718
 50
90.0
 51
180.0
  0
ARC
  5
3C7
  8
DATA
  6
CONTINUOUS
 62
     7
 10
-648.4799999999999
 20
-616.2505187999999
 30
0.0
 40
1.5199999999999809
 50
90.0
 51
180.0
  0
LINE
  5
3C8
  8
DATA
  6
CONTINUOUS
 62
     7
 10
-648.16982934307703
 20
-382.10769283606419
 30
0.0
 11
-650.0
 21
-359.84689591111078
 31
0.0
  0
ARC
  5
3C9
  8
DATA
  6
CONTINUOUS
 62
     7
 10
-635.71186200785155
 20
-381.08346147818861
 30
0.0
 40
12.50000000000002
 50
184.7000000000003
 51
260.53640516317341
  0
LINE
  5
3CA
  8
DATA
  6
CONTINUOUS
 62
     7
 10
-642.01764359999981
 20
-394.9719445508922
 30
0.0
 11
-642.01764359999981
 21
-391.8763813107509
 31
0.0
  0
ARC
  5
3CB
  8
DATA
  6
CONTINUOUS
 62
     7
 10
-599.67377237112976
 20
-270.08075551111068
 30
0.0
 40
12.5
 50
90.0
 51
157.7000000000001
  0
LINE
  5
3CC
  8
DATA
  6
CONTINUOUS
 62
     7
 10
-599.67377237112976
 20
-257.58075551111028
 30
0.0
 11
-514.90622762886949
 21
-257.58075551111028
 31
0.0
  0
ARC
  5
3CD
  8
DATA
  6
CONTINUOUS
 62
     7
 10
-514.90622762886949
 20
-270.08075551111068
 30
0.0
 40
12.499999999999909
 50
22.29999999999983
 51
89.999999999999986
  0
LINE
  5
3CE
  8
DATA
  6
CONTINUOUS
 62
     7
 10
-472.56235640000011
 20
-845.4355625999998
 30
0.0
 11
-472.56235640000011
 21
-619.29495620000012
 31
0.0
  0
LINE
  5
3CF
  8
DATA
  6
CONTINUOUS
 62
     7
 10
-464.58000000000033
 20
-848.4799999999999
 30
0.0
 11
-464.57999999999993
 21
-616.2505187999999
 31
0.0
  0
LINE
  5
3D0
  8
DATA
  6
CONTINUOUS
 62
     7
 10
-99.999999999999915
 20
-845.43323239999995
 30
0.0
 11
-99.999999999999915
 21
-619.29728640000019
 31
0.0
  0
LINE
  5
3D1
  8
DATA
  6
CONTINUOUS
 62
     7
 10
-93.648933199999547
 20
-847.4655626
 30
0.0
 11
-93.648933199999547
 21
-617.26495620000014
 31
0.0
  0
LINE
  5
3D2
  8
DATA
  6
CONTINUOUS
 62
     7
 10
-57.485784799999593
 20
-846.62438187059081
 30
0.0
 11
-57.485784799999593
 21
-618.10621434020265
 31
0.0
  0
LINE
  5
3D3
  8
DATA
  6
CONTINUOUS
 62
     7
 10
-87.186222740456174
 20
-615.50771836706531
 30
0.0
 11
-87.186222740456174
 21
-849.22279856327884
 31
0.0
  0
LINE
  5
3D4
  8
DATA
  6
CONTINUOUS
 62
     7
 10
44.780355599999993
 20
-836.28454917566398
 30
0.0
 11
44.780355600000448
 21
-628.44631631405707
 31
0.0
  0
ARC
  5
3D5
  8
DATA
  6
CONTINUOUS
 62
     7
 10
-478.2898598000001
 20
-840.16000800000029
 30
0.0
 40
0.7599999999999909
 50
270.0
 51
0.0
  0
LINE
  5
3D6
  8
DATA
  6
CONTINUOUS
 62
     7
 10
-477.5298598
 20
-840.16000800000029
 30
0.0
 11
-477.5298598
 21
-832.78800799999988
 31
0.0
  0
LINE
  5
3D7
  8
DATA
  6
CONTINUOUS
 62
     7
 10
-485.66185979999989
 20
-840.92000800000005
 30
0.0
 11
-478.2898598000001
 21
-840.92000800000005
 31
0.0
  0
ARC
  5
3D8
  8
DATA
  6
CONTINUOUS
 62
     7
 10
-476.0098597999999
 20
-832.78800799999988
 30
0.0
 40
1.5199999999999809
 50
90.0
 51
180.0
  0
LINE
  5
3D9
  8
DATA
  6
CONTINUOUS
 62
     7
 10
-476.0098597999999
 20
-831.26800800000012
 30
0.0
 11
-474.48185979999971
 21
-831.26800800000012
 31
0.0
  0
ARC
  5
3DA
  8
DATA
  6
CONTINUOUS
 62
     7
 10
-485.66185979999989
 20
-842.44000799999992
 30
0.0
 40
1.5199999999999809
 50
90.0
 51
180.0
  0
LINE
  5
3DB
  8
DATA
  6
CONTINUOUS
 62
     7
 10
-487.18185979999993
 20
-843.96800800000005
 30
0.0
 11
-487.18185979999993
 21
-842.44000799999992
 31
0.0
  0
ARC
  5
3DC
  8
DATA
  6
CONTINUOUS
 62
     7
 10
-474.59235640000003
 20
-845.4355625999998
 30
0.0
 40
2.0299999999999718
 50
270.0
 51
0.0
  0
LINE
  5
3DD
  8
DATA
  6
CONTINUOUS
 62
     7
 10
-473.5783563999999
 20
-843.96800800000005
 30
0.0
 11
-473.5783563999999
 21
-802.20598522385274
 31
0.0
  0
LINE
  5
3DE
  8
DATA
  6
CONTINUOUS
 62
     7
 10
-474.48185979999971
 20
-831.26800800000012
 30
0.0
 11
-474.48185979999971
 21
-802.13764424334295
 31
0.0
  0
ARC
  5
3DF
  8
DATA
  6
CONTINUOUS
 62
     7
 10
-466.09999999999991
 20
-848.4799999999999
 30
0.0
 40
1.5199999999999809
 50
270.0
 51
0.0
  0
LINE
  5
3E0
  8
DATA
  6
CONTINUOUS
 62
     7
 10
-487.92640999999992
 20
-821.27780700000017
 30
0.0
 11
-483.04960999999992
 21
-821.27780700000017
 31
0.0
  0
LINE
  5
3E1
  8
DATA
  6
CONTINUOUS
 62
     7
 10
-485.48800999999992
 20
-823.71620700000005
 30
0.0
 11
-485.48800999999992
 21
-818.83940700000039
 31
0.0
  0
CIRCLE
  5
3E2
  8
DATA
  6
CONTINUOUS
 62
     7
 10
-485.48800999999992
 20
-821.27780700000017
 30
0.0
 40
4.7999903999998406
  0
LINE
  5
3E3
  8
DATA
  6
CONTINUOUS
 62
     7
 10
-96.001278000000084
 20
-849.99400559999992
 30
0.0
 11
43.392830561727003
 21
-837.79876527137662
 31
0.0
  0
LINE
  5
3E4
  8
DATA
  6
CONTINUOUS
 62
     7
 10
-97.967669799999726
 20
-847.4655626
 30
0.0
 11
-93.648933200000002
 21
-847.4655626
 31
0.0
  0
ARC
  5
3E5
  8
DATA
  6
CONTINUOUS
 62
     7
 10
-97.967669799999726
 20
-845.43323239999995
 30
0.0
 40
2.03233020000016
 50
180.0
 51
270.0
  0
ARC
  5
3E6
  8
DATA
  6
CONTINUOUS
 62
     7
 10
-96.138564999999645
 20
-848.4249460000002
 30
0.0
 40
1.5750539999999089
 50
180.0
 51
274.99999999999039
  0
LINE
  5
3E7
  8
DATA
  6
CONTINUOUS
 62
     7
 10
-97.713618999999994
 20
-848.4249460000002
 30
0.0
 11
-97.713618999999994
 21
-847.4655626
 31
0.0
  0
ARC
  5
3E8
  8
DATA
  6
CONTINUOUS
 62
     7
 10
43.260355600000011
 20
-836.28454917566398
 30
0.0
 40
1.5200000000000471
 50
274.99993312979512
 51
0.0
  0
LINE
  5
3E9
  8
DATA
  6
CONTINUOUS
 62
     7
 10
-477.5298598
 20
-624.59560600000009
 30
0.0
 11
-477.5298598
 21
-631.96760599999982
 31
0.0
  0
LINE
  5
3EA
  8
DATA
  6
CONTINUOUS
 62
     7
 10
-473.5783563999999
 20
-643.12217560807267
 30
0.0
 11
-473.5783563999999
 21
-620.7876060000001
 31
0.0
  0
ARC
  5
3EB
  8
DATA
  6
CONTINUOUS
 62
     7
 10
-476.0098597999999
 20
-631.96760599999982
 30
0.0
 40
1.5199999999999809
 50
180.0
 51
270.0
  0
LINE
  5
3EC
  8
DATA
  6
CONTINUOUS
 62
     7
 10
-476.0098597999999
 20
-633.4876059999998
 30
0.0
 11
-474.48185979999971
 21
-633.4876059999998
 31
0.0
  0
LINE
  5
3ED
  8
DATA
  6
CONTINUOUS
 62
     7
 10
-485.48800999999992
 20
-641.0394070000001
 30
0.0
 11
-485.48800999999992
 21
-643.5609538957716
 31
0.0
  0
LINE
  5
3EE
  8
DATA
  6
CONTINUOUS
 62
     7
 10
-487.92640999999992
 20
-643.4778070000001
 30
0.0
 11
-485.3335514257036
 21
-643.4778070000001
 31
0.0
  0
ARC
  5
3EF
  8
DATA
  6
CONTINUOUS
 62
     7
 10
-485.48800999999992
 20
-643.47780699999998
 30
0.0
 40
4.7999903999999036
 50
17.297727990725608
 51
220.6465089321413
  0
ARC
  5
3F0
  8
DATA
  6
CONTINUOUS
 62
     7
 10
-479.09433237658999
 20
-655.25318717128459
 30
0.0
 40
13.326193474548511
 50
60.648857237027578
 51
123.1929196416543
  0
LINE
  5
3F1
  8
DATA
  6
CONTINUOUS
 62
     7
 10
-474.48185979999971
 20
-642.75068625141625
 30
0.0
 11
-474.48185979999971
 21
-633.4876059999998
 31
0.0
  0
ARC
  5
3F2
  8
DATA
  6
CONTINUOUS
 62
     7
 10
-478.2898598000001
 20
-624.59560600000009
 30
0.0
 40
0.7599999999997636
 50
0.0
 51
90.0
  0
LINE
  5
3F3
  8
DATA
  6
CONTINUOUS
 62
     7
 10
-485.66185979999989
 20
-623.83560599999998
 30
0.0
 11
-478.2898598000001
 21
-623.83560599999998
 31
0.0
  0
ARC
  5
3F4
  8
DATA
  6
CONTINUOUS
 62
     7
 10
-485.66185979999989
 20
-622.315606
 30
0.0
 40
1.5199999999999809
 50
180.0
 51
270.0
  0
LINE
  5
3F5
  8
DATA
  6
CONTINUOUS
 62
     7
 10
-487.18185979999993
 20
-620.7876060000001
 30
0.0
 11
-487.18185979999993
 21
-622.315606
 31
0.0
  0
ARC
  5
3F6
  8
DATA
  6
CONTINUOUS
 62
     7
 10
-474.59235640000003
 20
-619.29495620000012
 30
0.0
 40
2.0299999999997449
 50
0.0
 51
90.0
  0
ARC
  5
3F7
  8
DATA
  6
CONTINUOUS
 62
     7
 10
-466.09999999999991
 20
-616.2505187999999
 30
0.0
 40
1.5199999999995271
 50
0.0
 51
90.0
  0
LINE
  5
3F8
  8
DATA
  6
CONTINUOUS
 62
     7
 10
-466.41017065692313
 20
-382.10769283606419
 30
0.0
 11
-464.57999999999993
 21
-359.84689591111078
 31
0.0
  0
ARC
  5
3F9
  8
DATA
  6
CONTINUOUS
 62
     7
 10
-478.86813799214849
 20
-381.08346147818861
 30
0.0
 40
12.50000000000002
 50
279.46359483682761
 51
355.29999999999973
  0
LINE
  5
3FA
  8
DATA
  6
CONTINUOUS
 62
     7
 10
-472.56235640000011
 20
-394.9719445508922
 30
0.0
 11
-472.56235640000011
 21
-391.81971492434877
 31
0.0
  0
LINE
  5
3FB
  8
DATA
  6
CONTINUOUS
 62
     7
 10
-96.001278000000084
 20
-614.73648779999985
 30
0.0
 11
43.392834572975161
 21
-626.93210056928376
 31
0.0
  0
ARC
  5
3FC
  8
DATA
  6
CONTINUOUS
 62
     7
 10
43.260355600000459
 20
-628.44631631405707
 30
0.0
 40
1.5199999999999809
 50
0.0
 51
84.999915090289065
  0
ARC
  5
3FD
  8
DATA
  6
CONTINUOUS
 62
     7
 10
-97.967669799999726
 20
-619.29728640000019
 30
0.0
 40
2.03233020000016
 50
90.0
 51
180.0
  0
LINE
  5
3FE
  8
DATA
  6
CONTINUOUS
 62
     7
 10
-97.967669799999726
 20
-617.26495620000014
 30
0.0
 11
-93.648933200000002
 21
-617.26495620000014
 31
0.0
  0
ARC
  5
3FF
  8
DATA
  6
CONTINUOUS
 62
     7
 10
-96.138564999999645
 20
-616.30557280000005
 30
0.0
 40
1.575053999999855
 50
85.000000000008924
 51
180.0
  0
LINE
  5
400
  8
DATA
  6
CONTINUOUS
 62
     7
 10
-97.713618999999994
 20
-617.26495620000014
 30
0.0
 11
-97.713618999999994
 21
-616.30557280000005
 31
0.0
  0
LINE
  5
401
  8
DATA
  6
CONTINUOUS
 62
     7
 10
-495.80030581325752
 20
119.5
 30
0.0
 11
-461.0
 21
119.5
 31
0.0
  0
LINE
  5
402
  8
DATA
  6
CONTINUOUS
 62
     7
 10
-461.0
 20
130.49999999999989
 30
0.0
 11
-495.80030581325752
 21
130.49999999999989
 31
0.0
  0
LINE
  5
403
  8
DATA
  6
CONTINUOUS
 62
     7
 10
-566.0
 20
83.000000000000213
 30
0.0
 11
-566.0
 21
166.99999999999969
 31
0.0
  0
LINE
  5
404
  8
DATA
  6
CONTINUOUS
 62
     7
 10
-565.0
 20
83.000000000000213
 30
0.0
 11
-565.0
 21
167.0000000000002
 31
0.0
  0
LINE
  5
405
  8
DATA
  6
CONTINUOUS
 62
     7
 10
-635.0
 20
83.000000000000213
 30
0.0
 11
-635.0
 21
166.99999999999969
 31
0.0
  0
LINE
  5
406
  8
DATA
  6
CONTINUOUS
 62
     7
 10
-634.0
 20
83.000000000000213
 30
0.0
 11
-633.99999999999977
 21
166.99999999999969
 31
0.0
  0
LINE
  5
407
  8
DATA
  6
CONTINUOUS
 62
     7
 10
-566.0
 20
134.87956810631241
 30
0.0
 11
-575.0
 21
134.87956810631241
 31
0.0
  0
LINE
  5
408
  8
DATA
  6
CONTINUOUS
 62
     7
 10
-566.0
 20
133.75
 30
0.0
 11
-575.0
 21
133.75
 31
0.0
  0
LINE
  5
409
  8
DATA
  6
CONTINUOUS
 62
     7
 10
-566.0
 20
116.25
 30
0.0
 11
-575.0
 21
116.25
 31
0.0
  0
LINE
  5
40A
  8
DATA
  6
CONTINUOUS
 62
     7
 10
-575.0
 20
115.12043189368789
 30
0.0
 11
-566.0
 21
115.12043189368789
 31
0.0
  0
ARC
  5
40B
  8
DATA
  6
CONTINUOUS
 62
     7
 10
-575.0
 20
125.0
 30
0.0
 40
9.8795681063122878
 50
210.63293386126011
 51
270.0
  0
ARC
  5
40C
  8
DATA
  6
CONTINUOUS
 62
     7
 10
-575.0
 20
125.0
 30
0.0
 40
9.8795681063122647
 50
90.0
 51
149.3670661387398
  0
ARC
  5
40D
  8
DATA
  6
CONTINUOUS
 62
     7
 10
-575.0
 20
125.0
 30
0.0
 40
8.7499999999999822
 50
202.56742262803559
 51
270.0
  0
ARC
  5
40E
  8
DATA
  6
CONTINUOUS
 62
     7
 10
-575.0
 20
125.0
 30
0.0
 40
8.75
 50
90.0
 51
157.4325773719643
  0
CIRCLE
  5
40F
  8
DATA
  6
CONTINUOUS
 62
     7
 10
-574.99999999999955
 20
125.0
 30
0.0
 40
3.5
  0
ARC
  5
410
  8
DATA
  6
CONTINUOUS
 62
     7
 10
-569.0
 20
83.000000000000213
 30
0.0
 40
3.0
 50
270.0
 51
0.0
  0
ARC
  5
411
  8
DATA
  6
CONTINUOUS
 62
     7
 10
-567.99999999999966
 20
83.000000000000213
 30
0.0
 40
3.0
 50
270.0
 51
0.0
  0
LINE
  5
412
  8
DATA
  6
CONTINUOUS
 62
     7
 10
-590.12043189368751
 20
90.500000000000213
 30
0.0
 11
-590.12043189368751
 21
80.000000000000455
 31
0.0
  0
LINE
  5
413
  8
DATA
  6
CONTINUOUS
 62
     7
 10
-591.24999999999955
 20
90.500000000000213
 30
0.0
 11
-591.24999999999955
 21
80.000000000000213
 31
0.0
  0
ARC
  5
414
  8
DATA
  6
CONTINUOUS
 62
     7
 10
-625.0
 20
125.0
 30
0.0
 40
9.8795681063123677
 50
30.632933861258302
 51
90.0
  0
ARC
  5
415
  8
DATA
  6
CONTINUOUS
 62
     7
 10
-625.0
 20
125.0
 30
0.0
 40
9.8795681063122647
 50
270.0
 51
329.36706613874162
  0
ARC
  5
416
  8
DATA
  6
CONTINUOUS
 62
     7
 10
-625.0
 20
125.0
 30
0.0
 40
8.7500000000000195
 50
22.567422628032329
 51
90.0
  0
ARC
  5
417
  8
DATA
  6
CONTINUOUS
 62
     7
 10
-625.0
 20
125.0
 30
0.0
 40
8.75
 50
270.0
 51
337.43257737196768
  0
LINE
  5
418
  8
DATA
  6
CONTINUOUS
 62
     7
 10
-625.0
 20
134.87956810631241
 30
0.0
 11
-633.99999999999955
 21
134.87956810631241
 31
0.0
  0
LINE
  5
419
  8
DATA
  6
CONTINUOUS
 62
     7
 10
-625.0
 20
133.75
 30
0.0
 11
-634.0
 21
133.75
 31
0.0
  0
LINE
  5
41A
  8
DATA
  6
CONTINUOUS
 62
     7
 10
-625.0
 20
116.25
 30
0.0
 11
-634.0
 21
116.25
 31
0.0
  0
LINE
  5
41B
  8
DATA
  6
CONTINUOUS
 62
     7
 10
-625.0
 20
115.12043189368789
 30
0.0
 11
-634.0
 21
115.12043189368789
 31
0.0
  0
CIRCLE
  5
41C
  8
DATA
  6
CONTINUOUS
 62
     7
 10
-624.99999999999977
 20
125.0
 30
0.0
 40
3.5
  0
ARC
  5
41D
  8
DATA
  6
CONTINUOUS
 62
     7
 10
-632.0
 20
83.000000000000213
 30
0.0
 40
3.0
 50
180.0
 51
270.0
  0
ARC
  5
41E
  8
DATA
  6
CONTINUOUS
 62
     7
 10
-631.0
 20
83.000000000000213
 30
0.0
 40
3.0
 50
180.0
 51
270.0
  0
LINE
  5
41F
  8
DATA
  6
CONTINUOUS
 62
     7
 10
-608.75
 20
90.500000000000213
 30
0.0
 11
-608.75
 21
80.000000000000213
 31
0.0
  0
LINE
  5
420
  8
DATA
  6
CONTINUOUS
 62
     7
 10
-609.87956810631204
 20
90.500000000000213
 30
0.0
 11
-609.87956810631204
 21
80.000000000000213
 31
0.0
  0
CIRCLE
  5
421
  8
DATA
  6
CONTINUOUS
 62
     7
 10
-600.0
 20
90.500000000000213
 30
0.0
 40
3.5
  0
ARC
  5
422
  8
DATA
  6
CONTINUOUS
 62
     7
 10
-600.0
 20
90.500000000000213
 30
0.0
 40
8.75
 50
0.0
 51
180.0
  0
ARC
  5
423
  8
DATA
  6
CONTINUOUS
 62
     7
 10
-600.0
 20
90.500000000000213
 30
0.0
 40
9.8795681063124903
 50
0.0
 51
180.0
  0
CIRCLE
  5
424
  8
DATA
  6
CONTINUOUS
 62
     7
 10
-600.0
 20
125.0
 30
0.0
 40
17.25
  0
LINE
  5
425
  8
DATA
  6
CONTINUOUS
 62
     7
 10
-632.0
 20
80.000000000000455
 30
0.0
 11
-567.99999999999966
 21
80.000000000000213
 31
0.0
  0
LINE
  5
426
  8
DATA
  6
CONTINUOUS
 62
     7
 10
-605.49999999999989
 20
238.19969418674279
 30
0.0
 11
-605.49999999999989
 21
273.00000000000068
 31
0.0
  0
LINE
  5
427
  8
DATA
  6
CONTINUOUS
 62
     7
 10
-594.49999999999955
 20
238.19969418674279
 30
0.0
 11
-594.49999999999955
 21
273.00000000000068
 31
0.0
  0
CIRCLE
  5
428
  8
DATA
  6
CONTINUOUS
 62
     7
 10
-600.0
 20
221.85000000000039
 30
0.0
 40
17.25
  0
ARC
  5
429
  8
DATA
  6
CONTINUOUS
 62
     7
 10
-569.00000000000045
 20
166.99999999999969
 30
0.0
 40
3.0
 50
0.0
 51
90.0
  0
ARC
  5
42A
  8
DATA
  6
CONTINUOUS
 62
     7
 10
-567.99999999999966
 20
167.0000000000002
 30
0.0
 40
3.0
 50
0.0
 51
90.0
  0
LINE
  5
42B
  8
DATA
  6
CONTINUOUS
 62
     7
 10
-590.12043189368751
 20
159.5000000000004
 30
0.0
 11
-590.12043189368751
 21
170.0
 31
0.0
  0
LINE
  5
42C
  8
DATA
  6
CONTINUOUS
 62
     7
 10
-591.24999999999955
 20
159.5000000000004
 30
0.0
 11
-591.24999999999955
 21
170.0
 31
0.0
  0
LINE
  5
42D
  8
DATA
  6
CONTINUOUS
 62
     7
 10
-608.75
 20
159.5000000000004
 30
0.0
 11
-608.75
 21
170.0
 31
0.0
  0
LINE
  5
42E
  8
DATA
  6
CONTINUOUS
 62
     7
 10
-609.87956810631204
 20
159.5000000000004
 30
0.0
 11
-609.87956810631204
 21
170.0
 31
0.0
  0
ARC
  5
42F
  8
DATA
  6
CONTINUOUS
 62
     7
 10
-632.0
 20
166.99999999999969
 30
0.0
 40
3.0
 50
90.0
 51
180.0
  0
ARC
  5
430
  8
DATA
  6
CONTINUOUS
 62
     7
 10
-630.99999999999966
 20
166.99999999999969
 30
0.0
 40
3.0
 50
90.0
 51
180.0
  0
ARC
  5
431
  8
DATA
  6
CONTINUOUS
 62
     7
 10
-600.0
 20
159.5000000000004
 30
0.0
 40
8.75
 50
180.0
 51
0.0
  0
CIRCLE
  5
432
  8
DATA
  6
CONTINUOUS
 62
     7
 10
-600.0
 20
159.5000000000002
 30
0.0
 40
3.5
  0
ARC
  5
433
  8
DATA
  6
CONTINUOUS
 62
     7
 10
-600.0
 20
159.5000000000004
 30
0.0
 40
9.8795681063124903
 50
180.0
 51
0.0
  0
LINE
  5
434
  8
DATA
  6
CONTINUOUS
 62
     7
 10
-632.0
 20
170.0
 30
0.0
 11
-567.99999999999966
 21
170.0
 31
0.0
  0
LINE
  5
435
  8
DATA
  6
CONTINUOUS
 62
     7
 10
-635.0
 20
300.00000000000028
 30
0.0
 11
-565.0
 21
300.00000000000028
 31
0.0
  0
LINE
  5
436
  8
DATA
  6
CONTINUOUS
 62
     7
 10
-608.75
 20
294.00000000000063
 30
0.0
 11
-591.24999999999955
 21
294.00000000000063
 31
0.0
  0
ARC
  5
437
  8
DATA
  6
CONTINUOUS
 62
     7
 10
-629.53826909813677
 20
297.91132975850007
 30
0.0
 40
4.9999999999998943
 50
190.3048464687669
 51
245.5076213631329
  0
LINE
  5
438
  8
DATA
  6
CONTINUOUS
 62
     7
 10
-635.0
 20
300.00000000000028
 30
0.0
 11
-634.45761864863596
 21
297.0169025675001
 31
0.0
  0
ARC
  5
439
  8
DATA
  6
CONTINUOUS
 62
     7
 10
-570.46173090186369
 20
297.91132975849968
 30
0.0
 40
5.0000000000000941
 50
294.4923786368692
 51
349.69515353123347
  0
LINE
  5
43A
  8
DATA
  6
CONTINUOUS
 62
     7
 10
-565.54238135136336
 20
297.01690256749953
 30
0.0
 11
-565.0
 21
300.00000000000028
 31
0.0
  0
LINE
  5
43B
  8
DATA
  6
CONTINUOUS
 62
     7
 10
-609.75000000000045
 20
273.00000000000068
 30
0.0
 11
-590.25000000000057
 21
273.00000000000068
 31
0.0
  0
LINE
  5
43C
  8
DATA
  6
CONTINUOUS
 62
     7
 10
-610.49999999999955
 20
284.50000000000063
 30
0.0
 11
-589.5
 21
284.50000000000063
 31
0.0
  0
LINE
  5
43D
  8
DATA
  6
CONTINUOUS
 62
     7
 10
-609.75000000000045
 20
282.00000000000028
 30
0.0
 11
-590.25000000000057
 21
282.00000000000028
 31
0.0
  0
LINE
  5
43E
  8
DATA
  6
CONTINUOUS
 62
     7
 10
-610.5
 20
287.22641096981732
 30
0.0
 11
-610.5
 21
284.50000000000063
 31
0.0
  0
LINE
  5
43F
  8
DATA
  6
CONTINUOUS
 62
     7
 10
-609.75000000000045
 20
273.00000000000068
 30
0.0
 11
-609.75000000000045
 21
282.00000000000028
 31
0.0
  0
LINE
  5
440
  8
DATA
  6
CONTINUOUS
 62
     7
 10
-609.49999999999989
 20
282.00000000000028
 30
0.0
 11
-609.49999999999989
 21
284.50000000000063
 31
0.0
  0
LINE
  5
441
  8
DATA
  6
CONTINUOUS
 62
     7
 10
-604.875
 20
273.00000000000068
 30
0.0
 11
-604.875
 21
282.00000000000028
 31
0.0
  0
LINE
  5
442
  8
DATA
  6
CONTINUOUS
 62
     7
 10
-595.12499999999989
 20
273.00000000000068
 30
0.0
 11
-595.12499999999989
 21
282.00000000000028
 31
0.0
  0
LINE
  5
443
  8
DATA
  6
CONTINUOUS
 62
     7
 10
-590.5
 20
282.00000000000028
 30
0.0
 11
-590.5
 21
284.50000000000063
 31
0.0
  0
LINE
  5
444
  8
DATA
  6
CONTINUOUS
 62
     7
 10
-589.5
 20
284.50000000000063
 30
0.0
 11
-589.5
 21
287.22641096981732
 31
0.0
  0
LINE
  5
445
  8
DATA
  6
CONTINUOUS
 62
     7
 10
-590.25000000000057
 20
273.00000000000028
 30
0.0
 11
-590.25000000000057
 21
282.00000000000028
 31
0.0
  0
ARC
  5
446
  8
DATA
  6
CONTINUOUS
 62
     7
 10
-600.0
 20
362.75000000000148
 30
0.0
 40
76.250000000000711
 50
245.5076213631325
 51
294.49237863686722
  0
LINE
  5
447
  8
DATA
  6
CONTINUOUS
 62
     7
 10
-608.75
 20
287.00371296228531
 30
0.0
 11
-608.75
 21
294.00000000000063
 31
0.0
  0
LINE
  5
448
  8
DATA
  6
CONTINUOUS
 62
     7
 10
-591.24999999999955
 20
287.00371296228531
 30
0.0
 11
-591.24999999999955
 21
294.00000000000063
 31
0.0
  0
ARC
  5
449
  8
DATA
  6
CONTINUOUS
 62
     7
 10
-512.15000000000009
 20
125.0
 30
0.0
 40
17.250000000000071
 50
18.59282254942736
 51
341.40717745057327
  0
LINE
  5
44A
  8
DATA
  6
CONTINUOUS
 62
     7
 10
-495.80030581325752
 20
130.49999999999989
 30
0.0
 11
-495.80030581325752
 21
119.5
 31
0.0
  0
LINE
  5
44B
  8
DATA
  6
CONTINUOUS
 62
     7
 10
-452.0
 20
134.49999999999989
 30
0.0
 11
-449.5
 21
134.49999999999989
 31
0.0
  0
LINE
  5
44C
  8
DATA
  6
CONTINUOUS
 62
     7
 10
-452.0
 20
120.0
 30
0.0
 11
-449.5
 21
120.0
 31
0.0
  0
LINE
  5
44D
  8
DATA
  6
CONTINUOUS
 62
     7
 10
-452.0
 20
115.5000000000004
 30
0.0
 11
-449.4999999999996
 21
115.5000000000004
 31
0.0
  0
LINE
  5
44E
  8
DATA
  6
CONTINUOUS
 62
     7
 10
-461.0
 20
125.0
 30
0.0
 11
-452.0
 21
125.0
 31
0.0
  0
LINE
  5
44F
  8
DATA
  6
CONTINUOUS
 62
     7
 10
-461.0
 20
133.4437476868984
 30
0.0
 11
-452.0
 21
133.4437476868984
 31
0.0
  0
LINE
  5
450
  8
DATA
  6
CONTINUOUS
 62
     7
 10
-461.0
 20
116.55625231310221
 30
0.0
 11
-452.0
 21
116.55625231310221
 31
0.0
  0
LINE
  5
451
  8
DATA
  6
CONTINUOUS
 62
     7
 10
-461.0
 20
133.4437476868984
 30
0.0
 11
-461.0
 21
116.55625231310221
 31
0.0
  0
LINE
  5
452
  8
DATA
  6
CONTINUOUS
 62
     7
 10
-452.0
 20
134.49999999999989
 30
0.0
 11
-452.0
 21
115.5000000000004
 31
0.0
  0
LINE
  5
453
  8
DATA
  6
CONTINUOUS
 62
     7
 10
-434.0
 20
170.0
 30
0.0
 11
-434.0
 21
80.000000000000213
 31
0.0
  0
LINE
  5
454
  8
DATA
  6
CONTINUOUS
 62
     7
 10
-439.5
 20
170.0
 30
0.0
 11
-439.5
 21
80.000000000000213
 31
0.0
  0
LINE
  5
455
  8
DATA
  6
CONTINUOUS
 62
     7
 10
-447.5
 20
170.0
 30
0.0
 11
-447.5
 21
135.5000000000004
 31
0.0
  0
LINE
  5
456
  8
DATA
  6
CONTINUOUS
 62
     7
 10
-447.5
 20
114.5000000000006
 30
0.0
 11
-447.5
 21
80.000000000000213
 31
0.0
  0
LINE
  5
457
  8
DATA
  6
CONTINUOUS
 62
     7
 10
-447.5
 20
80.000000000000213
 30
0.0
 11
-434.0
 21
80.000000000000213
 31
0.0
  0
LINE
  5
458
  8
DATA
  6
CONTINUOUS
 62
     7
 10
-447.36712570717128
 20
134.0
 30
0.0
 11
-439.5
 21
134.0
 31
0.0
  0
LINE
  5
459
  8
DATA
  6
CONTINUOUS
 62
     7
 10
-447.36712570717128
 20
116.0
 30
0.0
 11
-439.5
 21
116.0
 31
0.0
  0
LINE
  5
45A
  8
DATA
  6
CONTINUOUS
 62
     7
 10
-447.5
 20
135.5000000000004
 30
0.0
 11
-449.5
 21
135.5000000000004
 31
0.0
  0
LINE
  5
45B
  8
DATA
  6
CONTINUOUS
 62
     7
 10
-449.4999999999996
 20
114.5000000000006
 30
0.0
 11
-447.5
 21
114.5000000000006
 31
0.0
  0
LINE
  5
45C
  8
DATA
  6
CONTINUOUS
 62
     7
 10
-449.5
 20
135.49999999999989
 30
0.0
 11
-449.5
 21
114.5000000000006
 31
0.0
  0
ARC
  5
45D
  8
DATA
  6
CONTINUOUS
 62
     7
 10
-557.50000000002137
 20
124.9999999999997
 30
0.0
 40
110.5000000000216
 50
354.5473780121888
 51
5.4526219878118241
  0
LINE
  5
45E
  8
DATA
  6
CONTINUOUS
 62
     7
 10
-447.5
 20
170.0
 30
0.0
 11
-434.0
 21
170.0
 31
0.0
  0
LINE
  5
45F
  8
DATA
  6
CONTINUOUS
 62
     7
 10
-317.5
 20
167.0000000000002
 30
0.0
 11
-317.5
 21
83.000000000000213
 31
0.0
  0
LINE
  5
460
  8
DATA
  6
CONTINUOUS
 62
     7
 10
-320.0
 20
164.75695975450199
 30
0.0
 11
-320.0
 21
85.243040245497923
 31
0.0
  0
LINE
  5
461
  8
DATA
  6
CONTINUOUS
 62
     7
 10
-383.96615312498523
 20
167.5000000000004
 30
0.0
 11
-358.99392195633573
 21
135.38708224791841
 31
0.0
  0
LINE
  5
462
  8
DATA
  6
CONTINUOUS
 62
     7
 10
-385.0
 20
164.75695975450199
 30
0.0
 11
-360.9674359954177
 21
133.85240236678749
 31
0.0
  0
LINE
  5
463
  8
DATA
  6
CONTINUOUS
 62
     7
 10
-387.5
 20
167.0000000000002
 30
0.0
 11
-387.5
 21
83.000000000000213
 31
0.0
  0
LINE
  5
464
  8
DATA
  6
CONTINUOUS
 62
     7
 10
-385.0
 20
164.75695975450199
 30
0.0
 11
-385.0
 21
85.243040245497923
 31
0.0
  0
LINE
  5
465
  8
DATA
  6
CONTINUOUS
 62
     7
 10
-321.03384687501449
 20
167.5000000000004
 30
0.0
 11
-346.00607804366371
 21
135.38708224791841
 31
0.0
  0
LINE
  5
466
  8
DATA
  6
CONTINUOUS
 62
     7
 10
-320.0
 20
164.75695975450199
 30
0.0
 11
-344.03256400458253
 21
133.85240236678749
 31
0.0
  0
LINE
  5
467
  8
DATA
  6
CONTINUOUS
 62
     7
 10
-340.24999999999989
 20
90.500000000000213
 30
0.0
 11
-340.24999999999989
 21
82.500000000000213
 31
0.0
  0
ARC
  5
468
  8
DATA
  6
CONTINUOUS
 62
     7
 10
-325.3048780487801
 20
125.0000000000009
 30
0.0
 40
12.44512195122053
 50
100.1592157200317
 51
259.8407842799682
  0
CIRCLE
  5
469
  8
DATA
  6
CONTINUOUS
 62
     7
 10
-327.50000000000028
 20
125.0
 30
0.0
 40
3.6000000000003629
  0
ARC
  5
46A
  8
DATA
  6
CONTINUOUS
 62
     7
 10
-352.49999999999989
 20
125.0
 30
0.0
 40
14.99999999999968
 50
7.0452700079041923
 51
47.349808152800321
  0
LINE
  5
46B
  8
DATA
  6
CONTINUOUS
 62
     7
 10
-327.50000000000028
 20
137.2500000000002
 30
0.0
 11
-320.0
 21
137.2500000000002
 31
0.0
  0
ARC
  5
46C
  8
DATA
  6
CONTINUOUS
 62
     7
 10
-352.49999999999989
 20
125.0
 30
0.0
 40
14.999999999999741
 50
312.6501918471983
 51
352.95472999210023
  0
LINE
  5
46D
  8
DATA
  6
CONTINUOUS
 62
     7
 10
-327.50000000000028
 20
112.7500000000002
 30
0.0
 11
-320.0
 21
112.7500000000002
 31
0.0
  0
LINE
  5
46E
  8
DATA
  6
CONTINUOUS
 62
     7
 10
-358.99392195633573
 20
114.6129177520817
 30
0.0
 11
-383.96615312498568
 21
82.499999999999545
 31
0.0
  0
LINE
  5
46F
  8
DATA
  6
CONTINUOUS
 62
     7
 10
-360.9674359954177
 20
116.1475976332126
 30
0.0
 11
-385.0
 21
85.243040245497923
 31
0.0
  0
LINE
  5
470
  8
DATA
  6
CONTINUOUS
 62
     7
 10
-364.75000000000051
 20
90.500000000000213
 30
0.0
 11
-364.75000000000051
 21
82.500000000000213
 31
0.0
  0
ARC
  5
471
  8
DATA
  6
CONTINUOUS
 62
     7
 10
-384.50000000000051
 20
83.000000000000213
 30
0.0
 40
3.0
 50
180.0
 51
270.0
  0
CIRCLE
  5
472
  8
DATA
  6
CONTINUOUS
 62
     7
 10
-377.50000000000051
 20
125.0
 30
0.0
 40
3.5999999999999082
  0
LINE
  5
473
  8
DATA
  6
CONTINUOUS
 62
     7
 10
-385.0
 20
137.2500000000002
 30
0.0
 11
-377.50000000000051
 21
137.2500000000002
 31
0.0
  0
LINE
  5
474
  8
DATA
  6
CONTINUOUS
 62
     7
 10
-385.0
 20
112.7500000000002
 30
0.0
 11
-377.50000000000051
 21
112.7500000000002
 31
0.0
  0
ARC
  5
475
  8
DATA
  6
CONTINUOUS
 62
     7
 10
-379.69512195122019
 20
125.0000000000009
 30
0.0
 40
12.44512195122045
 50
280.15921572002958
 51
79.840784279968261
  0
ARC
  5
476
  8
DATA
  6
CONTINUOUS
 62
     7
 10
-352.49999999999989
 20
125.0
 30
0.0
 40
15.00000000000005
 50
132.65019184719969
 51
172.95472999209599
  0
ARC
  5
477
  8
DATA
  6
CONTINUOUS
 62
     7
 10
-352.49999999999989
 20
125.0
 30
0.0
 40
15.0
 50
187.0452700078996
 51
227.34980815280039
  0
CIRCLE
  5
478
  8
DATA
  6
CONTINUOUS
 62
     7
 10
-352.49999999999989
 20
90.500000000000213
 30
0.0
 40
3.5999999999999082
  0
ARC
  5
479
  8
DATA
  6
CONTINUOUS
 62
     7
 10
-352.49999999999989
 20
125.0
 30
0.0
 40
14.99999999999975
 50
56.910191847199783
 51
123.08980815280169
  0
CIRCLE
  5
47A
  8
DATA
  6
CONTINUOUS
 62
     7
 10
-352.49999999999989
 20
125.0
 30
0.0
 40
4.75
  0
LINE
  5
47B
  8
DATA
  6
CONTINUOUS
 62
     7
 10
-352.49999999999989
 20
134.0
 30
0.0
 11
-360.29422863406029
 21
129.5000000000002
 31
0.0
  0
LINE
  5
47C
  8
DATA
  6
CONTINUOUS
 62
     7
 10
-360.29422863406029
 20
120.5000000000004
 30
0.0
 11
-352.49999999999989
 21
116.0
 31
0.0
  0
ARC
  5
47D
  8
DATA
  6
CONTINUOUS
 62
     7
 10
-352.49999999999989
 20
125.0
 30
0.0
 40
15.000000000000179
 50
236.9101918471988
 51
303.08980815279961
  0
LINE
  5
47E
  8
DATA
  6
CONTINUOUS
 62
     7
 10
-360.29422863406029
 20
129.5000000000002
 30
0.0
 11
-360.29422863406029
 21
120.5000000000004
 31
0.0
  0
LINE
  5
47F
  8
DATA
  6
CONTINUOUS
 62
     7
 10
-344.70577136594
 20
120.5000000000004
 30
0.0
 11
-344.70577136594
 21
129.5000000000002
 31
0.0
  0
LINE
  5
480
  8
DATA
  6
CONTINUOUS
 62
     7
 10
-344.70577136594
 20
129.5000000000002
 30
0.0
 11
-352.49999999999989
 21
134.0
 31
0.0
  0
LINE
  5
481
  8
DATA
  6
CONTINUOUS
 62
     7
 10
-352.49999999999989
 20
116.0
 30
0.0
 11
-344.70577136594
 21
120.5000000000004
 31
0.0
  0
ARC
  5
482
  8
DATA
  6
CONTINUOUS
 62
     7
 10
-352.49999999999909
 20
88.304878048780211
 30
0.0
 40
12.44512195122053
 50
10.159215720031719
 51
169.84078427997039
  0
LINE
  5
483
  8
DATA
  6
CONTINUOUS
 62
     7
 10
-384.50000000000051
 20
80.000000000000213
 30
0.0
 11
-320.5
 21
80.000000000000213
 31
0.0
  0
LINE
  5
484
  8
DATA
  6
CONTINUOUS
 62
     7
 10
-383.96615312498523
 20
82.500000000000213
 30
0.0
 11
-321.03384687501512
 21
82.500000000000213
 31
0.0
  0
CIRCLE
  5
485
  8
DATA
  6
CONTINUOUS
 62
     7
 10
-352.49999999999989
 20
125.0
 30
0.0
 40
12.25
  0
LINE
  5
486
  8
DATA
  6
CONTINUOUS
 62
     7
 10
-346.00607804366371
 20
114.6129177520817
 30
0.0
 11
-321.03384687501512
 21
82.499999999999545
 31
0.0
  0
LINE
  5
487
  8
DATA
  6
CONTINUOUS
 62
     7
 10
-344.03256400458253
 20
116.1475976332126
 30
0.0
 11
-320.0
 21
85.243040245497923
 31
0.0
  0
ARC
  5
488
  8
DATA
  6
CONTINUOUS
 62
     7
 10
-320.5
 20
83.000000000000213
 30
0.0
 40
3.0
 50
270.0
 51
0.0
  0
LINE
  5
489
  8
DATA
  6
CONTINUOUS
 62
     7
 10
-340.24999999999989
 20
167.5000000000004
 30
0.0
 11
-340.24999999999989
 21
159.5000000000002
 31
0.0
  0
ARC
  5
48A
  8
DATA
  6
CONTINUOUS
 62
     7
 10
-384.50000000000051
 20
167.0000000000002
 30
0.0
 40
3.0
 50
90.0
 51
180.0
  0
LINE
  5
48B
  8
DATA
  6
CONTINUOUS
 62
     7
 10
-364.75000000000051
 20
167.5000000000004
 30
0.0
 11
-364.75000000000051
 21
159.5000000000002
 31
0.0
  0
CIRCLE
  5
48C
  8
DATA
  6
CONTINUOUS
 62
     7
 10
-352.49999999999989
 20
159.5000000000002
 30
0.0
 40
3.5999999999999082
  0
LINE
  5
48D
  8
DATA
  6
CONTINUOUS
 62
     7
 10
-320.5
 20
170.0000000000002
 30
0.0
 11
-384.50000000000051
 21
170.0
 31
0.0
  0
LINE
  5
48E
  8
DATA
  6
CONTINUOUS
 62
     7
 10
-383.96615312498523
 20
167.5000000000002
 30
0.0
 11
-321.03384687501512
 21
167.5000000000002
 31
0.0
  0
ARC
  5
48F
  8
DATA
  6
CONTINUOUS
 62
     7
 10
-352.49999999999909
 20
161.69512195122019
 30
0.0
 40
12.44512195122045
 50
190.15921572002961
 51
349.84078427996832
  0
ARC
  5
490
  8
DATA
  6
CONTINUOUS
 62
     7
 10
-320.5
 20
167.0000000000002
 30
0.0
 40
3.0
 50
0.0
 51
90.0
  0
TEXT
  5
491
  8
DATA
  6
CONTINUOUS
 62
     7
 10
-687.64229283707868
 20
-34.524999999999999
 30
0.0
 40
25.399999999999999
  1
Invisiball取付金具(壁用)
 41
0.75
 11
-687.64229283707868
 21
-9.125
 31
0.0
 73
     3
  0
TEXT
  5
492
  8
DATA
  6
CONTINUOUS
 62
     7
 10
599.99999999999989
 20
-1014.999765
 30
0.0
 40
25.399999999999999
  1
CONTROL 25 / 25-WH
 41
0.75
 11
599.99999999999989
 21
-989.59976499999993
 31
0.0
 73
     3
  0
TEXT
  5
493
  8
DATA
  6
CONTINUOUS
 62
     7
 10
574.99999999999989
 20
-977.90431499999988
 30
0.0
 40
16.93333333333333
  1
2WAYスピーカ
 41
0.75
 11
574.99999999999989
 21
-960.97098166666649
 31
0.0
 73
     3
  0
LINE
  5
494
  8
DATA
  6
CONTINUOUS
 62
     7
 10
175.00000000000011
 20
-616.2505187999999
 30
0.0
 11
175.00000000000011
 21
-848.4799999999999
 31
0.0
  0
LINE
  5
495
  8
DATA
  6
CONTINUOUS
 62
     7
 10
360.42000000000007
 20
-848.4799999999999
 30
0.0
 11
360.42000000000007
 21
-616.2505187999999
 31
0.0
  0
LINE
  5
496
  8
DATA
  6
CONTINUOUS
 62
     7
 10
218.3634704496481
 20
-837.31144694520481
 30
0.0
 11
218.36347044964859
 21
-627.41942002886606
 31
0.0
  0
LINE
  5
497
  8
DATA
  6
CONTINUOUS
 62
     7
 10
238.71000000000009
 20
-684.31144694520435
 30
0.0
 11
238.7099999999997
 21
-635.81144694520481
 31
0.0
  0
LINE
  5
498
  8
DATA
  6
CONTINUOUS
 62
     7
 10
239.70999999999961
 20
-684.31144694520435
 30
0.0
 11
239.70999999999961
 21
-635.81144694520481
 31
0.0
  0
LINE
  5
499
  8
DATA
  6
CONTINUOUS
 62
     7
 10
317.05652955035129
 20
-627.41942002886606
 30
0.0
 11
317.05652955035129
 21
-837.31144694520481
 31
0.0
  0
LINE
  5
49A
  8
DATA
  6
CONTINUOUS
 62
     7
 10
296.7099999999997
 20
-684.31144694520435
 30
0.0
 11
296.7099999999997
 21
-635.81144694520481
 31
0.0
  0
LINE
  5
49B
  8
DATA
  6
CONTINUOUS
 62
     7
 10
295.70999999999958
 20
-684.31144694520435
 30
0.0
 11
295.70999999999958
 21
-635.81144694520481
 31
0.0
  0
LINE
  5
49C
  8
DATA
  6
CONTINUOUS
 62
     7
 10
176.51999999999961
 20
-850.0
 30
0.0
 11
358.89999999999969
 21
-850.0
 31
0.0
  0
LINE
  5
49D
  8
DATA
  6
CONTINUOUS
 62
     7
 10
359.97480230740359
 20
-849.55480230740341
 30
0.0
 11
317.05652955035129
 21
-837.31144694520481
 31
0.0
  0
TEXT
  5
49E
  8
DATA
  6
CONTINUOUS
 62
     7
 10
254.1826254640296
 20
-831.51144694520463
 30
0.0
 40
3.4375
  1
PROFESSIONAL
 41
0.75
 11
254.1826254640296
 21
-828.07394694520451
 31
0.0
 73
     3
  0
LINE
  5
49F
  8
DATA
  6
CONTINUOUS
 62
     7
 10
218.36347044964859
 20
-837.31144694520481
 30
0.0
 11
317.05652955035129
 21
-837.31144694520481
 31
0.0
  0
TEXT
  5
4A0
  8
DATA
  6
CONTINUOUS
 62
     7
 10
278.0067946561544
 20
-799.51144694520463
 30
0.0
 40
3.4375
  1
25
 41
0.75
 11
278.0067946561544
 21
-796.07394694520463
 31
0.0
 73
     3
  0
LINE
  5
4A1
  8
DATA
  6
CONTINUOUS
 62
     7
 10
251.95999999999921
 20
-832.81144694520481
 30
0.0
 11
283.45999999999958
 21
-832.81144694520481
 31
0.0
  0
LINE
  5
4A2
  8
DATA
  6
CONTINUOUS
 62
     7
 10
251.95999999999921
 20
-800.81144694520435
 30
0.0
 11
283.45999999999958
 21
-800.81144694520469
 31
0.0
  0
LINE
  5
4A3
  8
DATA
  6
CONTINUOUS
 62
     7
 10
251.95999999999921
 20
-827.31144694520481
 30
0.0
 11
283.45999999999958
 21
-827.31144694520481
 31
0.0
  0
LINE
  5
4A4
  8
DATA
  6
CONTINUOUS
 62
     7
 10
233.21000000000009
 20
-793.31144694520435
 30
0.0
 11
302.20999999999998
 21
-793.31144694520435
 31
0.0
  0
CIRCLE
  5
4A5
  8
DATA
  6
CONTINUOUS
 62
     7
 10
267.7099999999997
 20
-740.81144694520435
 30
0.0
 40
18.0
  0
CIRCLE
  5
4A6
  8
DATA
  6
CONTINUOUS
 62
     7
 10
267.7099999999997
 20
-740.81144694520435
 30
0.0
 40
20.0
  0
LINE
  5
4A7
  8
DATA
  6
CONTINUOUS
 62
     7
 10
251.7099999999997
 20
-780.31144694520481
 30
0.0
 11
283.70999999999958
 21
-780.31144694520481
 31
0.0
  0
LINE
  5
4A8
  8
DATA
  6
CONTINUOUS
 62
     7
 10
251.7099999999997
 20
-774.31144694520435
 30
0.0
 11
283.70999999999958
 21
-774.31144694520435
 31
0.0
  0
LINE
  5
4A9
  8
DATA
  6
CONTINUOUS
 62
     7
 10
251.95999999999921
 20
-794.81144694520481
 30
0.0
 11
283.45999999999958
 21
-794.81144694520481
 31
0.0
  0
LINE
  5
4AA
  8
DATA
  6
CONTINUOUS
 62
     7
 10
233.21000000000009
 20
-690.31144694520481
 30
0.0
 11
302.20999999999998
 21
-690.31144694520481
 31
0.0
  0
LINE
  5
4AB
  8
DATA
  6
CONTINUOUS
 62
     7
 10
243.70999999999961
 20
-689.31144694520435
 30
0.0
 11
291.70999999999958
 21
-689.31144694520435
 31
0.0
  0
LINE
  5
4AC
  8
DATA
  6
CONTINUOUS
 62
     7
 10
243.70999999999961
 20
-688.31144694520435
 30
0.0
 11
291.70999999999958
 21
-688.31144694520435
 31
0.0
  0
LINE
  5
4AD
  8
DATA
  6
CONTINUOUS
 62
     7
 10
251.95999999999921
 20
-832.81144694520481
 30
0.0
 11
251.95999999999921
 21
-794.81144694520481
 31
0.0
  0
CIRCLE
  5
4AE
  8
DATA
  6
CONTINUOUS
 62
     7
 10
231.45999999999961
 20
-808.31144694520435
 30
0.0
 40
1.25
  0
LINE
  5
4AF
  8
DATA
  6
CONTINUOUS
 62
     7
 10
175.4451976925962
 20
-849.55480230740341
 30
0.0
 11
218.36347044964859
 21
-837.31144694520481
 31
0.0
  0
ARC
  5
4B0
  8
DATA
  6
CONTINUOUS
 62
     7
 10
176.51999999999961
 20
-848.4799999999999
 30
0.0
 40
1.5199999999999809
 50
180.0
 51
270.0
  0
TEXT
  5
4B1
  8
DATA
  6
CONTINUOUS
 62
     7
 10
253.4599999999997
 20
-799.51144694520463
 30
0.0
 40
3.4375
  1
CONTROL
 41
0.75
 11
253.4599999999997
 21
-796.07394694520463
 31
0.0
 73
     3
  0
ARC
  5
4B2
  8
DATA
  6
CONTINUOUS
 62
     7
 10
233.21000000000009
 20
-697.31144694520481
 30
0.0
 40
7.0
 50
90.0
 51
180.0
  0
CIRCLE
  5
4B3
  8
DATA
  6
CONTINUOUS
 62
     7
 10
235.96000000000009
 20
-740.81144694520435
 30
0.0
 40
2.0
  0
LINE
  5
4B4
  8
DATA
  6
CONTINUOUS
 62
     7
 10
226.21000000000009
 20
-786.31144694520435
 30
0.0
 11
226.21000000000009
 21
-697.31144694520481
 31
0.0
  0
ARC
  5
4B5
  8
DATA
  6
CONTINUOUS
 62
     7
 10
233.21000000000009
 20
-786.31144694520435
 30
0.0
 40
6.9999999999999849
 50
180.0
 51
270.0
  0
LINE
  5
4B6
  8
DATA
  6
CONTINUOUS
 62
     7
 10
274.2099999999997
 20
-742.31144694520469
 30
0.0
 11
261.2099999999997
 21
-742.31144694520469
 31
0.0
  0
LINE
  5
4B7
  8
DATA
  6
CONTINUOUS
 62
     7
 10
274.2099999999997
 20
-739.31144694520435
 30
0.0
 11
274.2099999999997
 21
-742.31144694520469
 31
0.0
  0
LINE
  5
4B8
  8
DATA
  6
CONTINUOUS
 62
     7
 10
261.2099999999997
 20
-739.31144694520435
 30
0.0
 11
274.2099999999997
 21
-739.31144694520435
 31
0.0
  0
LINE
  5
4B9
  8
DATA
  6
CONTINUOUS
 62
     7
 10
261.2099999999997
 20
-742.31144694520469
 30
0.0
 11
261.2099999999997
 21
-739.31144694520435
 31
0.0
  0
LINE
  5
4BA
  8
DATA
  6
CONTINUOUS
 62
     7
 10
251.7099999999997
 20
-780.31144694520481
 30
0.0
 11
251.7099999999997
 21
-774.31144694520435
 31
0.0
  0
ARC
  5
4BB
  8
DATA
  6
CONTINUOUS
 62
     7
 10
267.7099999999997
 20
-777.31144694520435
 30
0.0
 40
9.7500000000001474
 50
197.92021313939199
 51
342.0797868606071
  0
ARC
  5
4BC
  8
DATA
  6
CONTINUOUS
 62
     7
 10
267.7099999999997
 20
-777.31144694520435
 30
0.0
 40
9.7499999999997158
 50
17.920213139392821
 51
162.0797868606079
  0
LINE
  5
4BD
  8
DATA
  6
CONTINUOUS
 62
     7
 10
277.20999999999958
 20
-683.81144694520435
 30
0.0
 11
277.20999999999958
 21
-680.31144694520435
 31
0.0
  0
LINE
  5
4BE
  8
DATA
  6
CONTINUOUS
 62
     7
 10
275.45999999999958
 20
-682.06144694520435
 30
0.0
 11
278.95999999999958
 21
-682.06144694520435
 31
0.0
  0
CIRCLE
  5
4BF
  8
DATA
  6
CONTINUOUS
 62
     7
 10
277.20999999999958
 20
-682.06144694520435
 30
0.0
 40
2.5
  0
LINE
  5
4C0
  8
DATA
  6
CONTINUOUS
 62
     7
 10
245.70999999999961
 20
-684.06144694520435
 30
0.0
 11
245.70999999999961
 21
-680.06144694520435
 31
0.0
  0
LINE
  5
4C1
  8
DATA
  6
CONTINUOUS
 62
     7
 10
243.70999999999961
 20
-682.06144694520435
 30
0.0
 11
247.70999999999961
 21
-682.06144694520435
 31
0.0
  0
CIRCLE
  5
4C2
  8
DATA
  6
CONTINUOUS
 62
     7
 10
245.70999999999961
 20
-682.06144694520435
 30
0.0
 40
2.75
  0
ARC
  5
4C3
  8
DATA
  6
CONTINUOUS
 62
     7
 10
243.70999999999961
 20
-684.31144694520435
 30
0.0
 40
5.0
 50
180.0
 51
270.0
  0
ARC
  5
4C4
  8
DATA
  6
CONTINUOUS
 62
     7
 10
243.70999999999961
 20
-684.31144694520435
 30
0.0
 40
4.0
 50
180.0
 51
270.0
  0
LINE
  5
4C5
  8
DATA
  6
CONTINUOUS
 62
     7
 10
256.45999999999958
 20
-682.06144694520435
 30
0.0
 11
259.9599999999997
 21
-682.06144694520435
 31
0.0
  0
CIRCLE
  5
4C6
  8
DATA
  6
CONTINUOUS
 62
     7
 10
258.20999999999958
 20
-682.06144694520435
 30
0.0
 40
2.5
  0
LINE
  5
4C7
  8
DATA
  6
CONTINUOUS
 62
     7
 10
283.45999999999958
 20
-832.81144694520481
 30
0.0
 11
283.45999999999958
 21
-794.81144694520481
 31
0.0
  0
ARC
  5
4C8
  8
DATA
  6
CONTINUOUS
 62
     7
 10
302.20999999999998
 20
-697.31144694520481
 30
0.0
 40
7.0
 50
0.0
 51
90.0
  0
ARC
  5
4C9
  8
DATA
  6
CONTINUOUS
 62
     7
 10
302.20999999999998
 20
-786.31144694520481
 30
0.0
 40
7.0
 50
270.0
 51
0.0
  0
LINE
  5
4CA
  8
DATA
  6
CONTINUOUS
 62
     7
 10
309.21000000000009
 20
-786.31144694520481
 30
0.0
 11
309.21000000000009
 21
-697.31144694520481
 31
0.0
  0
CIRCLE
  5
4CB
  8
DATA
  6
CONTINUOUS
 62
     7
 10
299.45999999999958
 20
-740.81144694520435
 30
0.0
 40
2.0
  0
LINE
  5
4CC
  8
DATA
  6
CONTINUOUS
 62
     7
 10
283.70999999999958
 20
-780.31144694520481
 30
0.0
 11
283.70999999999958
 21
-774.31144694520435
 31
0.0
  0
LINE
  5
4CD
  8
DATA
  6
CONTINUOUS
 62
     7
 10
289.70999999999958
 20
-684.06144694520435
 30
0.0
 11
289.70999999999958
 21
-680.06144694520435
 31
0.0
  0
LINE
  5
4CE
  8
DATA
  6
CONTINUOUS
 62
     7
 10
287.70999999999998
 20
-682.06144694520435
 30
0.0
 11
291.71000000000009
 21
-682.06144694520435
 31
0.0
  0
CIRCLE
  5
4CF
  8
DATA
  6
CONTINUOUS
 62
     7
 10
289.70999999999958
 20
-682.06144694520435
 30
0.0
 40
2.75
  0
ARC
  5
4D0
  8
DATA
  6
CONTINUOUS
 62
     7
 10
291.70999999999958
 20
-684.31144694520435
 30
0.0
 40
5.0
 50
270.0
 51
0.0
  0
ARC
  5
4D1
  8
DATA
  6
CONTINUOUS
 62
     7
 10
291.70999999999958
 20
-684.31144694520435
 30
0.0
 40
4.0
 50
270.0
 51
0.0
  0
ARC
  5
4D2
  8
DATA
  6
CONTINUOUS
 62
     7
 10
358.89999999999969
 20
-848.4799999999999
 30
0.0
 40
1.5199999999999809
 50
270.0
 51
0.0
  0
LINE
  5
4D3
  8
DATA
  6
CONTINUOUS
 62
     7
 10
359.97480230740359
 20
-615.17571649259617
 30
0.0
 11
317.05652955035129
 21
-627.41942002886606
 31
0.0
  0
LINE
  5
4D4
  8
DATA
  6
CONTINUOUS
 62
     7
 10
358.89999999999969
 20
-614.7305187999998
 30
0.0
 11
176.51999999999961
 21
-614.7305187999998
 31
0.0
  0
LINE
  5
4D5
  8
DATA
  6
CONTINUOUS
 62
     7
 10
175.4451976925962
 20
-615.17571649259617
 30
0.0
 11
218.36347044964859
 21
-627.41942002886606
 31
0.0
  0
LINE
  5
4D6
  8
DATA
  6
CONTINUOUS
 62
     7
 10
218.36347044964859
 20
-627.41942002886606
 30
0.0
 11
317.05652955035129
 21
-627.41942002886606
 31
0.0
  0
LINE
  5
4D7
  8
DATA
  6
CONTINUOUS
 62
     7
 10
284.9599999999997
 20
-651.56144694520481
 30
0.0
 11
269.4599999999997
 21
-651.56144694520481
 31
0.0
  0
LINE
  5
4D8
  8
DATA
  6
CONTINUOUS
 62
     7
 10
269.4599999999997
 20
-644.56144694520469
 30
0.0
 11
284.9599999999997
 21
-644.56144694520469
 31
0.0
  0
LINE
  5
4D9
  8
DATA
  6
CONTINUOUS
 62
     7
 10
271.45999999999958
 20
-663.06144694520435
 30
0.0
 11
282.9599999999997
 21
-663.06144694520435
 31
0.0
  0
LINE
  5
4DA
  8
DATA
  6
CONTINUOUS
 62
     7
 10
271.45999999999958
 20
-665.06144694520435
 30
0.0
 11
282.9599999999997
 21
-665.06144694520435
 31
0.0
  0
LINE
  5
4DB
  8
DATA
  6
CONTINUOUS
 62
     7
 10
271.45999999999958
 20
-666.56144694520481
 30
0.0
 11
282.9599999999997
 21
-666.56144694520435
 31
0.0
  0
LINE
  5
4DC
  8
DATA
  6
CONTINUOUS
 62
     7
 10
248.9599999999997
 20
-652.06144694520481
 30
0.0
 11
286.4599999999997
 21
-652.06144694520481
 31
0.0
  0
LINE
  5
4DD
  8
DATA
  6
CONTINUOUS
 62
     7
 10
248.9599999999997
 20
-644.06144694520435
 30
0.0
 11
286.4599999999997
 21
-644.06144694520435
 31
0.0
  0
LINE
  5
4DE
  8
DATA
  6
CONTINUOUS
 62
     7
 10
243.70999999999961
 20
-630.81144694520481
 30
0.0
 11
291.70999999999958
 21
-630.81144694520481
 31
0.0
  0
LINE
  5
4DF
  8
DATA
  6
CONTINUOUS
 62
     7
 10
243.70999999999961
 20
-631.81144694520481
 30
0.0
 11
291.70999999999958
 21
-631.81144694520481
 31
0.0
  0
LINE
  5
4E0
  8
DATA
  6
CONTINUOUS
 62
     7
 10
248.9599999999997
 20
-670.06144694520435
 30
0.0
 11
286.4599999999997
 21
-670.06144694520435
 31
0.0
  0
LINE
  5
4E1
  8
DATA
  6
CONTINUOUS
 62
     7
 10
286.4599999999997
 20
-676.06144694520435
 30
0.0
 11
248.9599999999997
 21
-676.06144694520435
 31
0.0
  0
LINE
  5
4E2
  8
DATA
  6
CONTINUOUS
 62
     7
 10
269.4599999999997
 20
-651.56144694520481
 30
0.0
 11
269.4599999999997
 21
-644.56144694520469
 31
0.0
  0
LINE
  5
4E3
  8
DATA
  6
CONTINUOUS
 62
     7
 10
279.20999999999958
 20
-650.06144694520481
 30
0.0
 11
275.20999999999958
 21
-650.06144694520481
 31
0.0
  0
LINE
  5
4E4
  8
DATA
  6
CONTINUOUS
 62
     7
 10
279.20999999999958
 20
-646.06144694520481
 30
0.0
 11
279.20999999999958
 21
-650.06144694520481
 31
0.0
  0
LINE
  5
4E5
  8
DATA
  6
CONTINUOUS
 62
     7
 10
275.20999999999958
 20
-646.06144694520481
 30
0.0
 11
279.20999999999958
 21
-646.06144694520481
 31
0.0
  0
LINE
  5
4E6
  8
DATA
  6
CONTINUOUS
 62
     7
 10
275.20999999999958
 20
-650.06144694520481
 30
0.0
 11
275.20999999999958
 21
-646.06144694520481
 31
0.0
  0
LINE
  5
4E7
  8
DATA
  6
CONTINUOUS
 62
     7
 10
265.9599999999997
 20
-644.56144694520469
 30
0.0
 11
265.9599999999997
 21
-651.56144694520481
 31
0.0
  0
LINE
  5
4E8
  8
DATA
  6
CONTINUOUS
 62
     7
 10
260.20999999999958
 20
-646.06144694520481
 30
0.0
 11
260.20999999999958
 21
-650.06144694520481
 31
0.0
  0
TEXT
  5
4E9
  8
DATA
  6
CONTINUOUS
 62
     7
 10
259.84613202072887
 20
-675.06144694520435
 30
0.0
 40
5.15625
  1
INPUT
 41
0.75
 11
259.84613202072887
 21
-669.90519694520435
 31
0.0
 73
     3
  0
LINE
  5
4EA
  8
DATA
  6
CONTINUOUS
 62
     7
 10
271.45999999999958
 20
-652.06144694520481
 30
0.0
 11
271.45999999999998
 21
-670.06144694520435
 31
0.0
  0
LINE
  5
4EB
  8
DATA
  6
CONTINUOUS
 62
     7
 10
263.9599999999997
 20
-670.06144694520435
 30
0.0
 11
263.9599999999997
 21
-652.06144694520481
 31
0.0
  0
LINE
  5
4EC
  8
DATA
  6
CONTINUOUS
 62
     7
 10
250.45999999999961
 20
-651.56144694520481
 30
0.0
 11
250.45999999999961
 21
-644.56144694520469
 31
0.0
  0
LINE
  5
4ED
  8
DATA
  6
CONTINUOUS
 62
     7
 10
256.20999999999958
 20
-650.06144694520481
 30
0.0
 11
256.20999999999958
 21
-646.06144694520481
 31
0.0
  0
LINE
  5
4EE
  8
DATA
  6
CONTINUOUS
 62
     7
 10
245.70999999999961
 20
-640.06144694520435
 30
0.0
 11
245.70999999999961
 21
-636.06144694520435
 31
0.0
  0
LINE
  5
4EF
  8
DATA
  6
CONTINUOUS
 62
     7
 10
243.70999999999961
 20
-638.06144694520435
 30
0.0
 11
247.70999999999961
 21
-638.06144694520435
 31
0.0
  0
CIRCLE
  5
4F0
  8
DATA
  6
CONTINUOUS
 62
     7
 10
245.70999999999961
 20
-638.06144694520435
 30
0.0
 40
2.75
  0
ARC
  5
4F1
  8
DATA
  6
CONTINUOUS
 62
     7
 10
243.70999999999961
 20
-635.81144694520481
 30
0.0
 40
5.0
 50
90.0
 51
180.0
  0
ARC
  5
4F2
  8
DATA
  6
CONTINUOUS
 62
     7
 10
243.70999999999961
 20
-635.81144694520481
 30
0.0
 40
4.0
 50
90.0
 51
180.0
  0
LINE
  5
4F3
  8
DATA
  6
CONTINUOUS
 62
     7
 10
252.45999999999961
 20
-652.06144694520481
 30
0.0
 11
252.45999999999961
 21
-670.06144694520435
 31
0.0
  0
LINE
  5
4F4
  8
DATA
  6
CONTINUOUS
 62
     7
 10
248.9599999999997
 20
-676.06144694520435
 30
0.0
 11
248.9599999999997
 21
-644.06144694520435
 31
0.0
  0
LINE
  5
4F5
  8
DATA
  6
CONTINUOUS
 62
     7
 10
265.9599999999997
 20
-651.56144694520481
 30
0.0
 11
250.45999999999961
 21
-651.56144694520481
 31
0.0
  0
LINE
  5
4F6
  8
DATA
  6
CONTINUOUS
 62
     7
 10
250.45999999999961
 20
-644.56144694520469
 30
0.0
 11
265.9599999999997
 21
-644.56144694520469
 31
0.0
  0
LINE
  5
4F7
  8
DATA
  6
CONTINUOUS
 62
     7
 10
260.20999999999958
 20
-650.06144694520481
 30
0.0
 11
256.20999999999958
 21
-650.06144694520481
 31
0.0
  0
LINE
  5
4F8
  8
DATA
  6
CONTINUOUS
 62
     7
 10
256.20999999999958
 20
-646.06144694520481
 30
0.0
 11
260.20999999999958
 21
-646.06144694520481
 31
0.0
  0
LINE
  5
4F9
  8
DATA
  6
CONTINUOUS
 62
     7
 10
252.45999999999961
 20
-663.06144694520435
 30
0.0
 11
263.9599999999997
 21
-663.06144694520435
 31
0.0
  0
LINE
  5
4FA
  8
DATA
  6
CONTINUOUS
 62
     7
 10
252.45999999999961
 20
-665.06144694520435
 30
0.0
 11
263.9599999999997
 21
-665.06144694520435
 31
0.0
  0
LINE
  5
4FB
  8
DATA
  6
CONTINUOUS
 62
     7
 10
252.45999999999961
 20
-666.56144694520481
 30
0.0
 11
263.9599999999997
 21
-666.56144694520435
 31
0.0
  0
LINE
  5
4FC
  8
DATA
  6
CONTINUOUS
 62
     7
 10
289.70999999999958
 20
-640.06144694520435
 30
0.0
 11
289.70999999999958
 21
-636.06144694520435
 31
0.0
  0
LINE
  5
4FD
  8
DATA
  6
CONTINUOUS
 62
     7
 10
287.70999999999998
 20
-638.06144694520435
 30
0.0
 11
291.71000000000009
 21
-638.06144694520435
 31
0.0
  0
CIRCLE
  5
4FE
  8
DATA
  6
CONTINUOUS
 62
     7
 10
289.70999999999958
 20
-638.06144694520435
 30
0.0
 40
2.75
  0
ARC
  5
4FF
  8
DATA
  6
CONTINUOUS
 62
     7
 10
291.70999999999958
 20
-635.81144694520481
 30
0.0
 40
5.0
 50
0.0
 51
90.0
  0
ARC
  5
500
  8
DATA
  6
CONTINUOUS
 62
     7
 10
291.70999999999958
 20
-635.81144694520481
 30
0.0
 40
4.0
 50
0.0
 51
90.0
  0
LINE
  5
501
  8
DATA
  6
CONTINUOUS
 62
     7
 10
284.9599999999997
 20
-644.56144694520469
 30
0.0
 11
284.9599999999997
 21
-651.56144694520481
 31
0.0
  0
LINE
  5
502
  8
DATA
  6
CONTINUOUS
 62
     7
 10
286.4599999999997
 20
-644.06144694520435
 30
0.0
 11
286.4599999999997
 21
-676.06144694520435
 31
0.0
  0
LINE
  5
503
  8
DATA
  6
CONTINUOUS
 62
     7
 10
282.9599999999997
 20
-670.06144694520435
 30
0.0
 11
282.9599999999997
 21
-652.06144694520481
 31
0.0
  0
ARC
  5
504
  8
DATA
  6
CONTINUOUS
 62
     7
 10
176.51999999999961
 20
-616.2505187999999
 30
0.0
 40
1.5199999999999809
 50
90.0
 51
180.0
  0
ARC
  5
505
  8
DATA
  6
CONTINUOUS
 62
     7
 10
358.89999999999969
 20
-616.2505187999999
 30
0.0
 40
1.5199999999999809
 50
0.0
 51
90.0
  0
LINE
  5
506
  8
DATA
  6
CONTINUOUS
 62
     7
 10
575.0
 20
-450.0
 30
0.0
 11
925.0
 21
-450.0
 31
0.0
  0
TEXT
  5
507
  8
DATA
  6
CONTINUOUS
 62
     7
 10
595.27463807136257
 20
-437.5
 30
0.0
 40
24.921875
  1
コネクターパネル拡大図
 41
0.75
 11
595.27463807136257
 21
-412.578125
 31
0.0
 73
     3
  0
LINE
  5
508
  8
DATA
  6
CONTINUOUS
 62
     7
 10
797.49999881250051
 20
-766.66665937500011
 30
0.0
 11
797.49999881250096
 21
-808.33332499999995
 31
0.0
  0
LINE
  5
509
  8
DATA
  6
CONTINUOUS
 62
     7
 10
702.50000118749995
 20
-766.66665937500011
 30
0.0
 11
702.50000118749995
 21
-808.33332499999995
 31
0.0
  0
LINE
  5
50A
  8
DATA
  6
CONTINUOUS
 62
     7
 10
801.66649870833839
 20
-791.6666587499999
 30
0.0
 11
797.49999881250051
 21
-766.66665937500011
 31
0.0
  0
LINE
  5
50B
  8
DATA
  6
CONTINUOUS
 62
     7
 10
793.33349891666364
 20
-791.6666587499999
 30
0.0
 11
797.49999881250051
 21
-766.66665937500011
 31
0.0
  0
LINE
  5
50C
  8
DATA
  6
CONTINUOUS
 62
     7
 10
706.66650108333806
 20
-791.6666587499999
 30
0.0
 11
702.50000118749995
 21
-766.66665937500011
 31
0.0
  0
LINE
  5
50D
  8
DATA
  6
CONTINUOUS
 62
     7
 10
698.3335012916632
 20
-791.6666587499999
 30
0.0
 11
702.50000118749995
 21
-766.66665937500011
 31
0.0
  0
TEXT
  5
50E
  8
DATA
  6
CONTINUOUS
 62
     7
 10
769.63529812321121
 20
-849.99999062500001
 30
0.0
 40
26.855468078613281
  1
RED
 41
0.75
 11
769.63529812321121
 21
-823.14452254638672
 31
0.0
 73
     3
  0
TEXT
  5
50F
  8
DATA
  6
CONTINUOUS
 62
     7
 10
676.49294721083015
 20
-849.99999062500001
 30
0.0
 40
26.855468078613281
  1
BLK
 41
0.75
 11
676.49294721083015
 21
-823.14452254638672
 31
0.0
 73
     3
  0
CIRCLE
  5
510
  8
DATA
  6
CONTINUOUS
 62
     7
 10
860.00000000000034
 20
-726.24999999999943
 30
0.0
 40
13.75
  0
ARC
  5
511
  8
DATA
  6
CONTINUOUS
 62
     7
 10
870.0
 20
-737.49999999999875
 30
0.0
 40
20.0
 50
270.0
 51
0.0
  0
CIRCLE
  5
512
  8
DATA
  6
CONTINUOUS
 62
     7
 10
860.00000000000034
 20
-506.24999999999972
 30
0.0
 40
13.75
  0
ARC
  5
513
  8
DATA
  6
CONTINUOUS
 62
     7
 10
870.0
 20
-494.99999999999932
 30
0.0
 40
20.0
 50
0.0
 51
90.0
  0
CIRCLE
  5
514
  8
DATA
  6
CONTINUOUS
 62
     7
 10
797.49999999999955
 20
-726.24999999999852
 30
0.0
 40
12.5
  0
LINE
  5
515
  8
DATA
  6
CONTINUOUS
 62
     7
 10
640.0
 20
-736.24999999999943
 30
0.0
 11
640.0
 21
-716.24999999999852
 31
0.0
  0
CIRCLE
  5
516
  8
DATA
  6
CONTINUOUS
 62
     7
 10
640.0
 20
-726.24999999999943
 30
0.0
 40
13.75
  0
LINE
  5
517
  8
DATA
  6
CONTINUOUS
 62
     7
 10
609.9999999999992
 20
-737.49999999999875
 30
0.0
 11
610.0000000000008
 21
-495.00000000000011
 31
0.0
  0
CIRCLE
  5
518
  8
DATA
  6
CONTINUOUS
 62
     7
 10
702.5
 20
-726.24999999999943
 30
0.0
 40
12.5
  0
LINE
  5
519
  8
DATA
  6
CONTINUOUS
 62
     7
 10
797.49999999999955
 20
-734.99999999999852
 30
0.0
 11
797.49999999999955
 21
-717.49999999999909
 31
0.0
  0
LINE
  5
51A
  8
DATA
  6
CONTINUOUS
 62
     7
 10
860.00000000000034
 20
-736.24999999999943
 30
0.0
 11
860.00000000000034
 21
-716.24999999999852
 31
0.0
  0
LINE
  5
51B
  8
DATA
  6
CONTINUOUS
 62
     7
 10
629.99999999999966
 20
-757.49999999999943
 30
0.0
 11
870.0
 21
-757.49999999999943
 31
0.0
  0
ARC
  5
51C
  8
DATA
  6
CONTINUOUS
 62
     7
 10
629.99999999999966
 20
-737.49999999999875
 30
0.0
 40
20.0
 50
180.0
 51
270.0
  0
LINE
  5
51D
  8
DATA
  6
CONTINUOUS
 62
     7
 10
836.24999999999909
 20
-573.74999999999955
 30
0.0
 11
758.75000000000034
 21
-573.74999999999955
 31
0.0
  0
LINE
  5
51E
  8
DATA
  6
CONTINUOUS
 62
     7
 10
758.75000000000034
 20
-538.75000000000011
 30
0.0
 11
836.24999999999909
 21
-538.75000000000011
 31
0.0
  0
LINE
  5
51F
  8
DATA
  6
CONTINUOUS
 62
     7
 10
768.75
 20
-631.24999999999852
 30
0.0
 11
826.25000000000023
 21
-631.24999999999852
 31
0.0
  0
LINE
  5
520
  8
DATA
  6
CONTINUOUS
 62
     7
 10
768.75
 20
-641.24999999999955
 30
0.0
 11
826.25000000000023
 21
-641.24999999999852
 31
0.0
  0
LINE
  5
521
  8
DATA
  6
CONTINUOUS
 62
     7
 10
768.75
 20
-648.74999999999977
 30
0.0
 11
826.25000000000023
 21
-648.74999999999886
 31
0.0
  0
LINE
  5
522
  8
DATA
  6
CONTINUOUS
 62
     7
 10
656.25000000000057
 20
-576.25
 30
0.0
 11
843.74999999999955
 21
-576.25
 31
0.0
  0
LINE
  5
523
  8
DATA
  6
CONTINUOUS
 62
     7
 10
656.25000000000057
 20
-536.24999999999989
 30
0.0
 11
843.74999999999955
 21
-536.24999999999989
 31
0.0
  0
LINE
  5
524
  8
DATA
  6
CONTINUOUS
 62
     7
 10
630.00000000000057
 20
-475.00000000000068
 30
0.0
 11
870.0
 21
-474.99999999999977
 31
0.0
  0
LINE
  5
525
  8
DATA
  6
CONTINUOUS
 62
     7
 10
656.25000000000057
 20
-666.24999999999875
 30
0.0
 11
843.74999999999955
 21
-666.24999999999875
 31
0.0
  0
LINE
  5
526
  8
DATA
  6
CONTINUOUS
 62
     7
 10
843.74999999999955
 20
-696.24999999999909
 30
0.0
 11
656.25000000000057
 21
-696.24999999999909
 31
0.0
  0
LINE
  5
527
  8
DATA
  6
CONTINUOUS
 62
     7
 10
807.49999999999955
 20
-566.2499999999992
 30
0.0
 11
787.4999999999992
 21
-566.2499999999992
 31
0.0
  0
LINE
  5
528
  8
DATA
  6
CONTINUOUS
 62
     7
 10
787.4999999999992
 20
-546.24999999999966
 30
0.0
 11
807.49999999999955
 21
-546.24999999999966
 31
0.0
  0
LINE
  5
529
  8
DATA
  6
CONTINUOUS
 62
     7
 10
788.75
 20
-726.24999999999852
 30
0.0
 11
806.25
 21
-726.24999999999852
 31
0.0
  0
LINE
  5
52A
  8
DATA
  6
CONTINUOUS
 62
     7
 10
758.75000000000034
 20
-573.74999999999955
 30
0.0
 11
758.75000000000034
 21
-538.75000000000011
 31
0.0
  0
LINE
  5
52B
  8
DATA
  6
CONTINUOUS
 62
     7
 10
787.4999999999992
 20
-566.2499999999992
 30
0.0
 11
787.4999999999992
 21
-546.24999999999966
 31
0.0
  0
LINE
  5
52C
  8
DATA
  6
CONTINUOUS
 62
     7
 10
741.24999999999955
 20
-538.75000000000011
 30
0.0
 11
741.24999999999955
 21
-573.74999999999955
 31
0.0
  0
LINE
  5
52D
  8
DATA
  6
CONTINUOUS
 62
     7
 10
712.49999999999909
 20
-546.24999999999966
 30
0.0
 11
712.49999999999909
 21
-566.2499999999992
 31
0.0
  0
TEXT
  5
52E
  8
DATA
  6
CONTINUOUS
 62
     7
 10
710.68066010364589
 20
-691.2499999999992
 30
0.0
 40
25.78125
  1
INPUT
 41
0.75
 11
710.68066010364589
 21
-665.4687499999992
 31
0.0
 73
     3
  0
LINE
  5
52F
  8
DATA
  6
CONTINUOUS
 62
     7
 10
768.75
 20
-576.25
 30
0.0
 11
768.75000000000125
 21
-666.24999999999875
 31
0.0
  0
LINE
  5
530
  8
DATA
  6
CONTINUOUS
 62
     7
 10
731.24999999999955
 20
-666.24999999999875
 30
0.0
 11
731.24999999999955
 21
-576.25
 31
0.0
  0
LINE
  5
531
  8
DATA
  6
CONTINUOUS
 62
     7
 10
663.75
 20
-573.74999999999955
 30
0.0
 11
663.75
 21
-538.75000000000011
 31
0.0
  0
LINE
  5
532
  8
DATA
  6
CONTINUOUS
 62
     7
 10
692.49999999999852
 20
-566.2499999999992
 30
0.0
 11
692.49999999999852
 21
-546.24999999999966
 31
0.0
  0
LINE
  5
533
  8
DATA
  6
CONTINUOUS
 62
     7
 10
640.0
 20
-516.24999999999943
 30
0.0
 11
640.0
 21
-496.25
 31
0.0
  0
LINE
  5
534
  8
DATA
  6
CONTINUOUS
 62
     7
 10
630.00000000000057
 20
-506.24999999999972
 30
0.0
 11
650.0
 21
-506.24999999999972
 31
0.0
  0
CIRCLE
  5
535
  8
DATA
  6
CONTINUOUS
 62
     7
 10
640.0
 20
-506.24999999999972
 30
0.0
 40
13.75
  0
ARC
  5
536
  8
DATA
  6
CONTINUOUS
 62
     7
 10
630.00000000000057
 20
-495.00000000000011
 30
0.0
 40
20.0
 50
90.0
 51
180.0
  0
LINE
  5
537
  8
DATA
  6
CONTINUOUS
 62
     7
 10
630.00000000000057
 20
-726.24999999999943
 30
0.0
 11
650.0
 21
-726.24999999999943
 31
0.0
  0
LINE
  5
538
  8
DATA
  6
CONTINUOUS
 62
     7
 10
673.75000000000057
 20
-576.25
 30
0.0
 11
673.75000000000057
 21
-666.24999999999875
 31
0.0
  0
LINE
  5
539
  8
DATA
  6
CONTINUOUS
 62
     7
 10
656.25000000000057
 20
-696.24999999999909
 30
0.0
 11
656.25000000000057
 21
-536.24999999999989
 31
0.0
  0
LINE
  5
53A
  8
DATA
  6
CONTINUOUS
 62
     7
 10
741.24999999999955
 20
-573.74999999999955
 30
0.0
 11
663.75
 21
-573.74999999999955
 31
0.0
  0
LINE
  5
53B
  8
DATA
  6
CONTINUOUS
 62
     7
 10
663.75
 20
-538.75000000000011
 30
0.0
 11
741.24999999999955
 21
-538.75000000000011
 31
0.0
  0
LINE
  5
53C
  8
DATA
  6
CONTINUOUS
 62
     7
 10
712.49999999999909
 20
-566.2499999999992
 30
0.0
 11
692.49999999999852
 21
-566.2499999999992
 31
0.0
  0
LINE
  5
53D
  8
DATA
  6
CONTINUOUS
 62
     7
 10
692.49999999999852
 20
-546.24999999999966
 30
0.0
 11
712.49999999999909
 21
-546.24999999999966
 31
0.0
  0
LINE
  5
53E
  8
DATA
  6
CONTINUOUS
 62
     7
 10
693.7500000000008
 20
-726.24999999999943
 30
0.0
 11
711.24999999999898
 21
-726.24999999999943
 31
0.0
  0
LINE
  5
53F
  8
DATA
  6
CONTINUOUS
 62
     7
 10
673.75000000000057
 20
-631.24999999999852
 30
0.0
 11
731.24999999999955
 21
-631.24999999999852
 31
0.0
  0
LINE
  5
540
  8
DATA
  6
CONTINUOUS
 62
     7
 10
673.75000000000057
 20
-641.24999999999955
 30
0.0
 11
731.24999999999955
 21
-641.24999999999852
 31
0.0
  0
LINE
  5
541
  8
DATA
  6
CONTINUOUS
 62
     7
 10
673.75000000000057
 20
-648.74999999999977
 30
0.0
 11
731.24999999999955
 21
-648.74999999999886
 31
0.0
  0
LINE
  5
542
  8
DATA
  6
CONTINUOUS
 62
     7
 10
807.49999999999955
 20
-546.24999999999966
 30
0.0
 11
807.49999999999955
 21
-566.2499999999992
 31
0.0
  0
LINE
  5
543
  8
DATA
  6
CONTINUOUS
 62
     7
 10
860.00000000000034
 20
-516.24999999999943
 30
0.0
 11
860.00000000000034
 21
-496.25
 31
0.0
  0
LINE
  5
544
  8
DATA
  6
CONTINUOUS
 62
     7
 10
850.00000000000102
 20
-506.24999999999972
 30
0.0
 11
870.00000000000023
 21
-506.24999999999972
 31
0.0
  0
LINE
  5
545
  8
DATA
  6
CONTINUOUS
 62
     7
 10
836.24999999999909
 20
-538.75000000000011
 30
0.0
 11
836.24999999999909
 21
-573.74999999999955
 31
0.0
  0
LINE
  5
546
  8
DATA
  6
CONTINUOUS
 62
     7
 10
850.00000000000102
 20
-726.24999999999943
 30
0.0
 11
870.00000000000023
 21
-726.24999999999943
 31
0.0
  0
LINE
  5
547
  8
DATA
  6
CONTINUOUS
 62
     7
 10
843.74999999999955
 20
-536.24999999999989
 30
0.0
 11
843.74999999999955
 21
-696.24999999999909
 31
0.0
  0
LINE
  5
548
  8
DATA
  6
CONTINUOUS
 62
     7
 10
826.2499999999992
 20
-666.24999999999875
 30
0.0
 11
826.2499999999992
 21
-576.25
 31
0.0
  0
LINE
  5
549
  8
DATA
  6
CONTINUOUS
 62
     7
 10
889.99999999999909
 20
-737.49999999999875
 30
0.0
 11
889.99999999999909
 21
-494.99999999999932
 31
0.0
  0
ARC
  5
54A
  8
DATA
  6
CONTINUOUS
 62
     7
 10
-556.17730110917682
 20
-705.98187892454405
 30
0.0
 40
0.3187831148184466
 50
307.64190249757769
 51
354.26701928940832
  0
LINE
  5
54B
  8
DATA
  6
CONTINUOUS
 62
     7
 10
-564.36563247275001
 20
-700.9583729697498
 30
0.0
 11
-562.87117247275
 21
-697.39749296974969
 31
0.0
  0
LINE
  5
54C
  8
DATA
  6
CONTINUOUS
 62
     7
 10
-564.36563247275001
 20
-700.9583729697498
 30
0.0
 11
-565.84165247274996
 21
-697.39749296974969
 31
0.0
  0
LINE
  5
54D
  8
DATA
  6
CONTINUOUS
 62
     7
 10
-553.03723247275002
 20
-707.39749296974981
 30
0.0
 11
-553.03723247275002
 21
-697.39749296974969
 31
0.0
  0
LINE
  5
54E
  8
DATA
  6
CONTINUOUS
 62
     7
 10
-551.11841247275004
 20
-697.39749296974969
 30
0.0
 11
-551.11841247275004
 21
-705.86613296974986
 31
0.0
  0
LINE
  5
54F
  8
DATA
  6
CONTINUOUS
 62
     7
 10
-562.17006247275003
 20
-697.39749296974969
 30
0.0
 11
-562.17006247275003
 21
-705.86613296974986
 31
0.0
  0
LINE
  5
550
  8
DATA
  6
CONTINUOUS
 62
     7
 10
-560.32504247275006
 20
-697.39749296974969
 30
0.0
 11
-560.32504247275006
 21
-705.86613296974986
 31
0.0
  0
LINE
  5
551
  8
DATA
  6
CONTINUOUS
 62
     7
 10
-559.36563247275001
 20
-697.39749296974969
 30
0.0
 11
-559.36563247275001
 21
-707.39749296974981
 31
0.0
  0
LINE
  5
552
  8
DATA
  6
CONTINUOUS
 62
     7
 10
-557.68666247274996
 20
-698.33844296974985
 30
0.0
 11
-557.68666247274996
 21
-701.54878296974971
 31
0.0
  0
LINE
  5
553
  8
DATA
  6
CONTINUOUS
 62
     7
 10
-554.08808247274999
 20
-701.36302296974975
 30
0.0
 11
-554.08808247274999
 21
-699.02111296974988
 31
0.0
  0
LINE
  5
554
  8
DATA
  6
CONTINUOUS
 62
     7
 10
-555.86011247274996
 20
-698.78125296974986
 30
0.0
 11
-555.86011247274996
 21
-701.10598296974968
 31
0.0
  0
ARC
  5
555
  8
DATA
  6
CONTINUOUS
 62
     7
 10
-562.54030247275
 20
-704.82969296974977
 30
0.0
 40
2.5788534251679249
 50
264.69085622153369
 51
323.9911991542395
  0
LINE
  5
556
  8
DATA
  6
CONTINUOUS
 62
     7
 10
-563.57227247274989
 20
-704.26095296974972
 30
0.0
 11
-563.57227247274989
 21
-705.86611296974968
 31
0.0
  0
LINE
  5
557
  8
DATA
  6
CONTINUOUS
 62
     7
 10
-563.57227247274989
 20
-704.26095296974972
 30
0.0
 11
-565.23279247275002
 21
-704.26095296974972
 31
0.0
  0
LINE
  5
558
  8
DATA
  6
CONTINUOUS
 62
     7
 10
-565.23279247275002
 20
-704.26095296974972
 30
0.0
 11
-565.23279247275002
 21
-705.86611296974968
 31
0.0
  0
ARC
  5
559
  8
DATA
  6
CONTINUOUS
 62
     7
 10
-562.86765247275002
 20
-705.88775296974973
 30
0.0
 40
0.6979288262422863
 50
269.71184879275017
 51
1.775987005691491
  0
ARC
  5
55A
  8
DATA
  6
CONTINUOUS
 62
     7
 10
-562.87468247275001
 20
-705.88775296974973
 30
0.0
 40
0.6979252574595547
 50
178.22401299431689
 51
270.288151207243
  0
ARC
  5
55B
  8
DATA
  6
CONTINUOUS
 62
     7
 10
-563.01753247275008
 20
-704.82969296974977
 30
0.0
 40
2.5788492369466298
 50
216.00880084575951
 51
275.30914377846631
  0
ARC
  5
55C
  8
DATA
  6
CONTINUOUS
 62
     7
 10
-564.06735247275003
 20
-705.80958296974973
 30
0.0
 40
1.1668002081762019
 50
182.7769954499912
 51
207.35960666714649
  0
CIRCLE
  5
55D
  8
DATA
  6
CONTINUOUS
 62
     7
 10
-564.26415247274997
 20
-702.34214296974972
 30
0.0
 40
0.9501800000000457
  0
LINE
  5
55E
  8
DATA
  6
CONTINUOUS
 62
     7
 10
-548.03723247275002
 20
-707.39748296974972
 30
0.0
 11
-553.03723247275002
 21
-707.39748296974972
 31
0.0
  0
LINE
  5
55F
  8
DATA
  6
CONTINUOUS
 62
     7
 10
-548.03723247275002
 20
-707.39748296974972
 30
0.0
 11
-548.03723247275002
 21
-704.26094296974975
 31
0.0
  0
LINE
  5
560
  8
DATA
  6
CONTINUOUS
 62
     7
 10
-548.03723247275002
 20
-704.26095296974972
 30
0.0
 11
-549.71619247274998
 21
-704.26095296974972
 31
0.0
  0
LINE
  5
561
  8
DATA
  6
CONTINUOUS
 62
     7
 10
-549.71619247274998
 20
-704.26095296974972
 30
0.0
 11
-549.71619247274998
 21
-705.86611296974968
 31
0.0
  0
LINE
  5
562
  8
DATA
  6
CONTINUOUS
 62
     7
 10
-559.36563247275001
 20
-707.39748296974972
 30
0.0
 11
-555.86011247274996
 21
-707.39747296974986
 31
0.0
  0
LINE
  5
563
  8
DATA
  6
CONTINUOUS
 62
     7
 10
-557.68667247275005
 20
-706.45652296974981
 30
0.0
 11
-556.78261247275009
 21
-706.45652296974981
 31
0.0
  0
LINE
  5
564
  8
DATA
  6
CONTINUOUS
 62
     7
 10
-557.68666247274996
 20
-706.45652296974981
 30
0.0
 11
-557.68666247274996
 21
-702.50818296974978
 31
0.0
  0
LINE
  5
565
  8
DATA
  6
CONTINUOUS
 62
     7
 10
-557.68667247275005
 20
-702.50818296974978
 30
0.0
 11
-556.78261247275009
 21
-702.50818296974978
 31
0.0
  0
LINE
  5
566
  8
DATA
  6
CONTINUOUS
 62
     7
 10
-555.86011247274996
 20
-706.01372296974967
 30
0.0
 11
-555.86011247274996
 21
-702.9509829697497
 31
0.0
  0
ARC
  5
567
  8
DATA
  6
CONTINUOUS
 62
     7
 10
-561.49048247275005
 20
-705.80958296974973
 30
0.0
 40
1.1667985478650531
 50
332.64039333285473
 51
357.2230045500055
  0
ARC
  5
568
  8
DATA
  6
CONTINUOUS
 62
     7
 10
-550.41379247274995
 20
-705.88775296974973
 30
0.0
 40
0.6979288262422863
 50
269.71184879275017
 51
1.775987005691491
  0
ARC
  5
569
  8
DATA
  6
CONTINUOUS
 62
     7
 10
-550.42081247274996
 20
-705.88775296974973
 30
0.0
 40
0.6979252574595547
 50
178.22401299431689
 51
270.28815120725238
  0
LINE
  5
56A
  8
DATA
  6
CONTINUOUS
 62
     7
 10
-554.08889247274988
 20
-705.79231296974967
 30
0.0
 11
-554.08889247274988
 21
-703.13549296974975
 31
0.0
  0
LINE
  5
56B
  8
DATA
  6
CONTINUOUS
 62
     7
 10
-557.68667247275005
 20
-701.54878296974971
 30
0.0
 11
-556.78261247275009
 21
-701.54878296974971
 31
0.0
  0
ARC
  5
56C
  8
DATA
  6
CONTINUOUS
 62
     7
 10
-555.98723247274995
 20
-705.49911296974972
 30
0.0
 40
1.9026114117181401
 50
273.83098160911447
 51
351.13514730980211
  0
LINE
  5
56D
  8
DATA
  6
CONTINUOUS
 62
     7
 10
-562.17006247275003
 20
-697.39749296974969
 30
0.0
 11
-560.32504247275006
 21
-697.39749296974969
 31
0.0
  0
LINE
  5
56E
  8
DATA
  6
CONTINUOUS
 62
     7
 10
-565.84165247274996
 20
-697.39749296974969
 30
0.0
 11
-562.87117247275
 21
-697.39749296974969
 31
0.0
  0
LINE
  5
56F
  8
DATA
  6
CONTINUOUS
 62
     7
 10
-553.03723247275002
 20
-697.39749296974969
 30
0.0
 11
-551.11841247275004
 21
-697.39749296974969
 31
0.0
  0
LINE
  5
570
  8
DATA
  6
CONTINUOUS
 62
     7
 10
-559.36563247275001
 20
-697.39749296974969
 30
0.0
 11
-555.84084234460329
 21
-697.39750106349038
 31
0.0
  0
LINE
  5
571
  8
DATA
  6
CONTINUOUS
 62
     7
 10
-557.68667247275005
 20
-698.33845296974971
 30
0.0
 11
-556.78261247275009
 21
-698.33845296974971
 31
0.0
  0
ARC
  5
572
  8
DATA
  6
CONTINUOUS
 62
     7
 10
-555.96826247274987
 20
-699.29295296974976
 30
0.0
 40
1.899729932911512
 50
8.2269238590157432
 51
86.1541266921556
  0
ARC
  5
573
  8
DATA
  6
CONTINUOUS
 62
     7
 10
-556.77193701014676
 20
-704.70283500916275
 30
0.0
 40
1.753720453381721
 50
269.65121993761392
 51
282.82648280687249
  0
ARC
  5
574
  8
DATA
  6
CONTINUOUS
 62
     7
 10
-556.57496644528339
 20
-705.44427328097697
 30
0.0
 40
0.9874379036932177
 50
281.23310362266312
 51
306.86200889406479
  0
ARC
  5
575
  8
DATA
  6
CONTINUOUS
 62
     7
 10
-556.17730110917682
 20
-702.98282701495555
 30
0.0
 40
0.3187831148184176
 50
5.7329807106119457
 51
52.358097502422339
  0
ARC
  5
576
  8
DATA
  6
CONTINUOUS
 62
     7
 10
-556.77193701014676
 20
-704.26187093033673
 30
0.0
 40
1.7537204533817401
 50
77.173517193127452
 51
90.348780062386055
  0
ARC
  5
577
  8
DATA
  6
CONTINUOUS
 62
     7
 10
-556.57496644528339
 20
-703.52043265852285
 30
0.0
 40
0.9874379036932557
 50
53.1379911059352
 51
78.76689637733682
  0
ARC
  5
578
  8
DATA
  6
CONTINUOUS
 62
     7
 10
-555.05657247274996
 20
-703.20090296974979
 30
0.0
 40
0.9698881639138393
 50
3.8670063598174358
 51
88.361634567897184
  0
ARC
  5
579
  8
DATA
  6
CONTINUOUS
 62
     7
 10
-555.05746247274999
 20
-701.26098296974976
 30
0.0
 40
0.9708519399475536
 50
271.68928210464441
 51
356.07828298265798
  0
ARC
  5
57A
  8
DATA
  6
CONTINUOUS
 62
     7
 10
-556.17730110917682
 20
-701.07413892454394
 30
0.0
 40
0.3187831148185367
 50
307.64190249756513
 51
354.26701928938797
  0
ARC
  5
57B
  8
DATA
  6
CONTINUOUS
 62
     7
 10
-556.77193701014676
 20
-699.79509500916276
 30
0.0
 40
1.753720453381721
 50
269.65121993761392
 51
282.82648280687249
  0
ARC
  5
57C
  8
DATA
  6
CONTINUOUS
 62
     7
 10
-556.57496644528339
 20
-700.53653328097698
 30
0.0
 40
0.9874379036932177
 50
281.23310362266312
 51
306.86200889406479
  0
ARC
  5
57D
  8
DATA
  6
CONTINUOUS
 62
     7
 10
-556.17730110917682
 20
-698.8130970149557
 30
0.0
 40
0.3187831148184176
 50
5.7329807106119457
 51
52.358097502434831
  0
ARC
  5
57E
  8
DATA
  6
CONTINUOUS
 62
     7
 10
-556.77193701014676
 20
-700.09214093033677
 30
0.0
 40
1.7537204533817401
 50
77.173517193127452
 51
90.348780062386055
  0
ARC
  5
57F
  8
DATA
  6
CONTINUOUS
 62
     7
 10
-556.57496644528339
 20
-699.35070265852255
 30
0.0
 40
0.9874379036932557
 50
53.1379911059352
 51
78.76689637733682
  0
ARC
  5
580
  8
DATA
  6
CONTINUOUS
 62
     7
 10
268.93396877990517
 20
-817.91294308220313
 30
0.0
 40
0.3506614263002954
 50
307.64190249757252
 51
354.26701928941452
  0
LINE
  5
581
  8
DATA
  6
CONTINUOUS
 62
     7
 10
259.92680427997459
 20
-812.38708653192953
 30
0.0
 11
261.57071027997461
 21
-808.47011853192942
 31
0.0
  0
LINE
  5
582
  8
DATA
  6
CONTINUOUS
 62
     7
 10
259.92680427997459
 20
-812.38708653192953
 30
0.0
 11
258.30318227997469
 21
-808.47011853192942
 31
0.0
  0
LINE
  5
583
  8
DATA
  6
CONTINUOUS
 62
     7
 10
272.38804427997462
 20
-819.47011853192964
 30
0.0
 11
272.38804427997462
 21
-808.47011853192942
 31
0.0
  0
LINE
  5
584
  8
DATA
  6
CONTINUOUS
 62
     7
 10
274.49874627997468
 20
-808.47011853192942
 30
0.0
 11
274.49874627997468
 21
-817.78562253192968
 31
0.0
  0
LINE
  5
585
  8
DATA
  6
CONTINUOUS
 62
     7
 10
262.34193127997457
 20
-808.47011853192942
 30
0.0
 11
262.34193127997457
 21
-817.78562253192968
 31
0.0
  0
LINE
  5
586
  8
DATA
  6
CONTINUOUS
 62
     7
 10
264.37145327997462
 20
-808.47011853192942
 30
0.0
 11
264.37145327997462
 21
-817.78562253192968
 31
0.0
  0
LINE
  5
587
  8
DATA
  6
CONTINUOUS
 62
     7
 10
265.42680427997459
 20
-808.47011853192942
 30
0.0
 11
265.42680427997459
 21
-819.47011853192964
 31
0.0
  0
LINE
  5
588
  8
DATA
  6
CONTINUOUS
 62
     7
 10
267.27367127997462
 20
-809.5051635319295
 30
0.0
 11
267.27367127997462
 21
-813.03653753192964
 31
0.0
  0
LINE
  5
589
  8
DATA
  6
CONTINUOUS
 62
     7
 10
271.23210927997462
 20
-812.83220153192963
 30
0.0
 11
271.23210927997462
 21
-810.25610053192963
 31
0.0
  0
LINE
  5
58A
  8
DATA
  6
CONTINUOUS
 62
     7
 10
269.28287627997457
 20
-809.99225453192958
 30
0.0
 11
269.28287627997457
 21
-812.54945753192942
 31
0.0
  0
ARC
  5
58B
  8
DATA
  6
CONTINUOUS
 62
     7
 10
261.93466727997458
 20
-816.64553853192933
 30
0.0
 40
2.8367387676846398
 50
264.6908562215358
 51
323.99119915424029
  0
LINE
  5
58C
  8
DATA
  6
CONTINUOUS
 62
     7
 10
260.79950027997461
 20
-816.01992453192952
 30
0.0
 11
260.79950027997461
 21
-817.7856005319295
 31
0.0
  0
LINE
  5
58D
  8
DATA
  6
CONTINUOUS
 62
     7
 10
260.79950027997461
 20
-816.01992453192952
 30
0.0
 11
258.97292827997461
 21
-816.01992453192952
 31
0.0
  0
LINE
  5
58E
  8
DATA
  6
CONTINUOUS
 62
     7
 10
258.97292827997461
 20
-816.01992453192952
 30
0.0
 11
258.97292827997461
 21
-817.7856005319295
 31
0.0
  0
ARC
  5
58F
  8
DATA
  6
CONTINUOUS
 62
     7
 10
261.57458227997472
 20
-817.80940453192954
 30
0.0
 40
0.7677217088664127
 50
269.71184879274858
 51
1.7759870056942191
  0
ARC
  5
590
  8
DATA
  6
CONTINUOUS
 62
     7
 10
261.56684927997469
 20
-817.80940453192954
 30
0.0
 40
0.7677177832055159
 50
178.22401299431701
 51
270.28815120724943
  0
ARC
  5
591
  8
DATA
  6
CONTINUOUS
 62
     7
 10
261.40971427997459
 20
-816.64553853192933
 30
0.0
 40
2.8367341606412819
 50
216.00880084575951
 51
275.30914377846477
  0
ARC
  5
592
  8
DATA
  6
CONTINUOUS
 62
     7
 10
260.25491227997469
 20
-817.7234175319295
 30
0.0
 40
1.2834802289938021
 50
182.77699544999379
 51
207.35960666714769
  0
CIRCLE
  5
593
  8
DATA
  6
CONTINUOUS
 62
     7
 10
260.03843227997459
 20
-813.90923353192966
 30
0.0
 40
1.045197999999999
  0
LINE
  5
594
  8
DATA
  6
CONTINUOUS
 62
     7
 10
277.88804427997462
 20
-819.47010753192944
 30
0.0
 11
272.38804427997462
 21
-819.47010753192944
 31
0.0
  0
LINE
  5
595
  8
DATA
  6
CONTINUOUS
 62
     7
 10
277.88804427997462
 20
-819.47010753192944
 30
0.0
 11
277.88804427997462
 21
-816.01991353192966
 31
0.0
  0
LINE
  5
596
  8
DATA
  6
CONTINUOUS
 62
     7
 10
277.88804427997462
 20
-816.01992453192952
 30
0.0
 11
276.04118827997468
 21
-816.01992453192952
 31
0.0
  0
LINE
  5
597
  8
DATA
  6
CONTINUOUS
 62
     7
 10
276.04118827997468
 20
-816.01992453192952
 30
0.0
 11
276.04118827997468
 21
-817.7856005319295
 31
0.0
  0
LINE
  5
598
  8
DATA
  6
CONTINUOUS
 62
     7
 10
265.42680427997459
 20
-819.47010753192944
 30
0.0
 11
269.28287627997457
 21
-819.47009653192947
 31
0.0
  0
LINE
  5
599
  8
DATA
  6
CONTINUOUS
 62
     7
 10
267.27366027997459
 20
-818.43505153192962
 30
0.0
 11
268.26812627997458
 21
-818.43505153192962
 31
0.0
  0
LINE
  5
59A
  8
DATA
  6
CONTINUOUS
 62
     7
 10
267.27367127997462
 20
-818.43505153192962
 30
0.0
 11
267.27367127997462
 21
-814.09187753192953
 31
0.0
  0
LINE
  5
59B
  8
DATA
  6
CONTINUOUS
 62
     7
 10
267.27366027997459
 20
-814.09187753192953
 30
0.0
 11
268.26812627997458
 21
-814.09187753192953
 31
0.0
  0
LINE
  5
59C
  8
DATA
  6
CONTINUOUS
 62
     7
 10
269.28287627997457
 20
-817.94797153192951
 30
0.0
 11
269.28287627997457
 21
-814.57895753192963
 31
0.0
  0
ARC
  5
59D
  8
DATA
  6
CONTINUOUS
 62
     7
 10
263.08946927997459
 20
-817.7234175319295
 30
0.0
 40
1.2834784026515531
 50
332.64039333285342
 51
357.2230045500043
  0
ARC
  5
59E
  8
DATA
  6
CONTINUOUS
 62
     7
 10
275.27382827997462
 20
-817.80940453192954
 30
0.0
 40
0.7677217088664126
 50
269.71184879275057
 51
1.775987005694162
  0
ARC
  5
59F
  8
DATA
  6
CONTINUOUS
 62
     7
 10
275.26610627997462
 20
-817.80940453192954
 30
0.0
 40
0.7677177832054875
 50
178.22401299431681
 51
270.28815120725147
  0
LINE
  5
5A0
  8
DATA
  6
CONTINUOUS
 62
     7
 10
271.2312182799746
 20
-817.7044205319296
 30
0.0
 11
271.2312182799746
 21
-814.78191853192959
 31
0.0
  0
LINE
  5
5A1
  8
DATA
  6
CONTINUOUS
 62
     7
 10
267.27366027997459
 20
-813.03653753192964
 30
0.0
 11
268.26812627997458
 21
-813.03653753192964
 31
0.0
  0
ARC
  5
5A2
  8
DATA
  6
CONTINUOUS
 62
     7
 10
269.14304427997462
 20
-817.38190053192955
 30
0.0
 40
2.0928725528898511
 50
273.83098160911447
 51
351.13514730980222
  0
LINE
  5
5A3
  8
DATA
  6
CONTINUOUS
 62
     7
 10
262.34193127997457
 20
-808.47011853192942
 30
0.0
 11
264.37145327997462
 21
-808.47011853192942
 31
0.0
  0
LINE
  5
5A4
  8
DATA
  6
CONTINUOUS
 62
     7
 10
258.30318227997469
 20
-808.47011853192942
 30
0.0
 11
261.57071027997461
 21
-808.47011853192942
 31
0.0
  0
LINE
  5
5A5
  8
DATA
  6
CONTINUOUS
 62
     7
 10
272.38804427997462
 20
-808.47011853192942
 30
0.0
 11
274.49874627997468
 21
-808.47011853192942
 31
0.0
  0
LINE
  5
5A6
  8
DATA
  6
CONTINUOUS
 62
     7
 10
265.42680427997459
 20
-808.47011853192942
 30
0.0
 11
269.30407342093588
 21
-808.47012743504411
 31
0.0
  0
LINE
  5
5A7
  8
DATA
  6
CONTINUOUS
 62
     7
 10
267.27366027997459
 20
-809.50517453192947
 30
0.0
 11
268.26812627997458
 21
-809.50517453192947
 31
0.0
  0
ARC
  5
5A8
  8
DATA
  6
CONTINUOUS
 62
     7
 10
269.16391127997463
 20
-810.55512453192966
 30
0.0
 40
2.0897029262026692
 50
8.2269238590166722
 51
86.154126692152929
  0
ARC
  5
5A9
  8
DATA
  6
CONTINUOUS
 62
     7
 10
268.2798692888382
 20
-816.50599477528385
 30
0.0
 40
1.9290924987199041
 50
269.65121993761778
 51
282.8264828068734
  0
ARC
  5
5AA
  8
DATA
  6
CONTINUOUS
 62
     7
 10
268.49653691018801
 20
-817.32157687427923
 30
0.0
 40
1.0861816940625391
 50
281.23310362266011
 51
306.86200889406012
  0
ARC
  5
5AB
  8
DATA
  6
CONTINUOUS
 62
     7
 10
268.93396877990517
 20
-814.61398598165601
 30
0.0
 40
0.3506614263002887
 50
5.7329807106039947
 51
52.358097502427562
  0
ARC
  5
5AC
  8
DATA
  6
CONTINUOUS
 62
     7
 10
268.2798692888382
 20
-816.02093428857529
 30
0.0
 40
1.9290924987199161
 50
77.173517193125733
 51
90.348780062382204
  0
ARC
  5
5AD
  8
DATA
  6
CONTINUOUS
 62
     7
 10
268.49653691018801
 20
-815.2053521895798
 30
0.0
 40
1.0861816940625619
 50
53.137991105938561
 51
78.766896377339876
  0
ARC
  5
5AE
  8
DATA
  6
CONTINUOUS
 62
     7
 10
270.16677027997463
 20
-814.85386953192949
 30
0.0
 40
1.0668769803051319
 50
3.8670063598226601
 51
88.361634567897667
  0
ARC
  5
5AF
  8
DATA
  6
CONTINUOUS
 62
     7
 10
270.1657912799746
 20
-812.71995753192948
 30
0.0
 40
1.0679371339424131
 50
271.6892821046489
 51
356.07828298265468
  0
ARC
  5
5B0
  8
DATA
  6
CONTINUOUS
 62
     7
 10
268.93396877990517
 20
-812.51442908220304
 30
0.0
 40
0.3506614263003854
 50
307.64190249756098
 51
354.2670192893973
  0
ARC
  5
5B1
  8
DATA
  6
CONTINUOUS
 62
     7
 10
268.2798692888382
 20
-811.10748077528388
 30
0.0
 40
1.9290924987199041
 50
269.65121993761778
 51
282.8264828068734
  0
ARC
  5
5B2
  8
DATA
  6
CONTINUOUS
 62
     7
 10
268.49653691018801
 20
-811.92306287427937
 30
0.0
 40
1.0861816940625391
 50
281.23310362266011
 51
306.86200889406012
  0
ARC
  5
5B3
  8
DATA
  6
CONTINUOUS
 62
     7
 10
268.93396877990517
 20
-810.02728298165596
 30
0.0
 40
0.3506614263003001
 50
5.7329807106224804
 51
52.358097502434902
  0
ARC
  5
5B4
  8
DATA
  6
CONTINUOUS
 62
     7
 10
268.2798692888382
 20
-811.43423128857512
 30
0.0
 40
1.9290924987199161
 50
77.173517193125733
 51
90.348780062382204
  0
ARC
  5
5B5
  8
DATA
  6
CONTINUOUS
 62
     7
 10
268.49653691018801
 20
-810.61864918957963
 30
0.0
 40
1.0861816940625619
 50
53.137991105938561
 51
78.766896377339876
  0
ENDSEC
  0
EOF
